  0
SECTION
  2
HEADER
  9
$ACADVER
  1
AC1015
  9
$ACADMAINTVER
 70
    18
  9
$DWGCODEPAGE
  3
ANSI_1252
  9
$INSBASE
 10
0.0
 20
0.0
 30
0.0
  9
$EXTMIN
 10
0.0
 20
0.0
 30
0.0
  9
$EXTMAX
 10
2.75
 20
2.125
 30
0.0
  9
$LIMMIN
 10
0.0
 20
0.0
  9
$LIMMAX
 10
2.75
 20
2.125
  9
$ORTHOMODE
 70
     0
  9
$REGENMODE
 70
     1
  9
$FILLMODE
 70
     1
  9
$QTEXTMODE
 70
     0
  9
$MIRRTEXT
 70
     0
  9
$LTSCALE
 40
0.25
  9
$ATTMODE
 70
     1
  9
$TEXTSIZE
 40
0.2
  9
$TRACEWID
 40
0.05
  9
$TEXTSTYLE
  7
Standard
  9
$CLAYER
  8
0
  9
$CELTYPE
  6
ByLayer
  9
$CECOLOR
 62
   256
  9
$CELTSCALE
 40
1.0
  9
$DISPSILH
 70
     0
  9
$DIMSCALE
 40
1.0
  9
$DIMASZ
 40
0.0708661417322835
  9
$DIMEXO
 40
0.0625
  9
$DIMDLI
 40
0.38
  9
$DIMRND
 40
0.0
  9
$DIMDLE
 40
0.0
  9
$DIMEXE
 40
0.18
  9
$DIMTP
 40
0.0
  9
$DIMTM
 40
0.0
  9
$DIMTXT
 40
0.3048000037670135
  9
$DIMCEN
 40
0.09
  9
$DIMTSZ
 40
0.0
  9
$DIMTOL
 70
     0
  9
$DIMLIM
 70
     0
  9
$DIMTIH
 70
     1
  9
$DIMTOH
 70
     1
  9
$DIMSE1
 70
     0
  9
$DIMSE2
 70
     0
  9
$DIMTAD
 70
     0
  9
$DIMZIN
 70
     0
  9
$DIMBLK
  1

  9
$DIMASO
 70
     1
  9
$DIMSHO
 70
     1
  9
$DIMPOST
  1

  9
$DIMAPOST
  1

  9
$DIMALT
 70
     0
  9
$DIMALTD
 70
     2
  9
$DIMALTF
 40
25.4
  9
$DIMLFAC
 40
1.0
  9
$DIMTOFL
 70
     0
  9
$DIMTVP
 40
0.0
  9
$DIMTIX
 70
     0
  9
$DIMSOXD
 70
     0
  9
$DIMSAH
 70
     0
  9
$DIMBLK1
  1

  9
$DIMBLK2
  1

  9
$DIMSTYLE
  2
Standard
  9
$DIMCLRD
 70
     0
  9
$DIMCLRE
 70
     0
  9
$DIMCLRT
 70
     0
  9
$DIMTFAC
 40
1.0
  9
$DIMGAP
 40
0.09
  9
$DIMJUST
 70
     0
  9
$DIMSD1
 70
     0
  9
$DIMSD2
 70
     0
  9
$DIMTOLJ
 70
     1
  9
$DIMTZIN
 70
     0
  9
$DIMALTZ
 70
     0
  9
$DIMALTTZ
 70
     0
  9
$DIMUPT
 70
     0
  9
$DIMDEC
 70
     4
  9
$DIMTDEC
 70
     4
  9
$DIMALTU
 70
     2
  9
$DIMALTTD
 70
     2
  9
$DIMTXSTY
  7
Standard
  9
$DIMAUNIT
 70
     0
  9
$DIMADEC
 70
     0
  9
$DIMALTRND
 40
0.0
  9
$DIMAZIN
 70
     0
  9
$DIMDSEP
 70
    46
  9
$DIMATFIT
 70
     3
  9
$DIMFRAC
 70
     0
  9
$DIMLDRBLK
  1

  9
$DIMLUNIT
 70
     2
  9
$DIMLWD
 70
    -2
  9
$DIMLWE
 70
    -2
  9
$DIMTMOVE
 70
     0
  9
$LUNITS
 70
     2
  9
$LUPREC
 70
     4
  9
$SKETCHINC
 40
0.1
  9
$FILLETRAD
 40
0.0
  9
$AUNITS
 70
     0
  9
$AUPREC
 70
     0
  9
$MENU
  1
.
  9
$ELEVATION
 40
0.0
  9
$PELEVATION
 40
0.0
  9
$THICKNESS
 40
0.0
  9
$LIMCHECK
 70
     0
  9
$CHAMFERA
 40
0.0
  9
$CHAMFERB
 40
0.0
  9
$CHAMFERC
 40
0.0
  9
$CHAMFERD
 40
0.0
  9
$SKPOLY
 70
     0
  9
$TDCREATE
 40
2454846.694486574
  9
$TDUCREATE
 40
2454847.027819907
  9
$TDUPDATE
 40
2454846.694486574
  9
$TDUUPDATE
 40
2454847.027819907
  9
$TDINDWG
 40
0.0000439468
  9
$TDUSRTIMER
 40
0.0000439468
  9
$USRTIMER
 70
     1
  9
$ANGBASE
 50
0.0
  9
$ANGDIR
 70
     0
  9
$PDMODE
 70
     0
  9
$PDSIZE
 40
0.0
  9
$PLINEWID
 40
0.0
  9
$SPLFRAME
 70
     0
  9
$SPLINETYPE
 70
     6
  9
$SPLINESEGS
 70
     8
  9
$HANDSEED
  5
435
  9
$SURFTAB1
 70
     6
  9
$SURFTAB2
 70
     6
  9
$SURFTYPE
 70
     6
  9
$SURFU
 70
     6
  9
$SURFV
 70
     6
  9
$UCSBASE
  2

  9
$UCSNAME
  2

  9
$UCSORG
 10
0.0
 20
0.0
 30
0.0
  9
$UCSXDIR
 10
1.0
 20
0.0
 30
0.0
  9
$UCSYDIR
 10
0.0
 20
1.0
 30
0.0
  9
$UCSORTHOREF
  2

  9
$UCSORTHOVIEW
 70
     0
  9
$UCSORGTOP
 10
0.0
 20
0.0
 30
0.0
  9
$UCSORGBOTTOM
 10
0.0
 20
0.0
 30
0.0
  9
$UCSORGLEFT
 10
0.0
 20
0.0
 30
0.0
  9
$UCSORGRIGHT
 10
0.0
 20
0.0
 30
0.0
  9
$UCSORGFRONT
 10
0.0
 20
0.0
 30
0.0
  9
$UCSORGBACK
 10
0.0
 20
0.0
 30
0.0
  9
$PUCSBASE
  2

  9
$PUCSNAME
  2

  9
$PUCSORG
 10
0.0
 20
0.0
 30
0.0
  9
$PUCSXDIR
 10
1.0
 20
0.0
 30
0.0
  9
$PUCSYDIR
 10
0.0
 20
1.0
 30
0.0
  9
$PUCSORTHOREF
  2

  9
$PUCSORTHOVIEW
 70
     0
  9
$PUCSORGTOP
 10
0.0
 20
0.0
 30
0.0
  9
$PUCSORGBOTTOM
 10
0.0
 20
0.0
 30
0.0
  9
$PUCSORGLEFT
 10
0.0
 20
0.0
 30
0.0
  9
$PUCSORGRIGHT
 10
0.0
 20
0.0
 30
0.0
  9
$PUCSORGFRONT
 10
0.0
 20
0.0
 30
0.0
  9
$PUCSORGBACK
 10
0.0
 20
0.0
 30
0.0
  9
$USERI1
 70
     0
  9
$USERI2
 70
     0
  9
$USERI3
 70
     0
  9
$USERI4
 70
     0
  9
$USERI5
 70
     0
  9
$USERR1
 40
0.0
  9
$USERR2
 40
0.0
  9
$USERR3
 40
0.0
  9
$USERR4
 40
0.0
  9
$USERR5
 40
0.0
  9
$WORLDVIEW
 70
     1
  9
$SHADEDGE
 70
     3
  9
$SHADEDIF
 70
    70
  9
$TILEMODE
 70
     1
  9
$MAXACTVP
 70
    64
  9
$PINSBASE
 10
0.0
 20
0.0
 30
0.0
  9
$PLIMCHECK
 70
     0
  9
$PEXTMIN
 10
0.0
 20
0.0
 30
0.0
  9
$PEXTMAX
 10
2.75
 20
2.125
 30
0.0
  9
$PLIMMIN
 10
0.0
 20
0.0
  9
$PLIMMAX
 10
2.75
 20
2.125
  9
$UNITMODE
 70
     0
  9
$VISRETAIN
 70
     1
  9
$PLINEGEN
 70
     0
  9
$PSLTSCALE
 70
     1
  9
$TREEDEPTH
 70
  3020
  9
$CMLSTYLE
  2
Standard
  9
$CMLJUST
 70
     0
  9
$CMLSCALE
 40
1.0
  9
$PROXYGRAPHICS
 70
     1
  9
$MEASUREMENT
 70
     0
  9
$CELWEIGHT
370
    -1
  9
$ENDCAPS
280
     0
  9
$JOINSTYLE
280
     0
  9
$LWDISPLAY
290
     0
  9
$INSUNITS
 70
     0
  9
$HYPERLINKBASE
  1

  9
$STYLESHEET
  1

  9
$XEDIT
290
     1
  9
$CEPSNTYPE
380
     0
  9
$PSTYLEMODE
290
     1
  9
$FINGERPRINTGUID
  2
{3F46885F-EAC5-4EF4-8B54-6C3DD1A2CC31}
  9
$VERSIONGUID
  2
{DB0ACFB4-872F-417A-9E91-25B908B7A420}
  9
$EXTNAMES
290
     1
  9
$PSVPSCALE
 40
0.0
  9
$OLESTARTUP
290
     0
  0
ENDSEC
  0
SECTION
  2
CLASSES
  0
CLASS
  1
ACDBDICTIONARYWDFLT
  2
AcDbDictionaryWithDefault
  3
ObjectDBX Classes
 90
        0
280
     0
281
     0
  0
CLASS
  1
MATERIAL
  2
AcDbMaterial
  3
ObjectDBX Classes
 90
     1024
280
     0
281
     0
  0
CLASS
  1
VISUALSTYLE
  2
AcDbVisualStyle
  3
ObjectDBX Classes
 90
     4095
280
     0
281
     0
  0
CLASS
  1
TABLESTYLE
  2
AcDbTableStyle
  3
ObjectDBX Classes
 90
     4095
280
     0
281
     0
  0
CLASS
  1
DICTIONARYVAR
  2
AcDbDictionaryVar
  3
ObjectDBX Classes
 90
        0
280
     0
281
     0
  0
CLASS
  1
ACDBPLACEHOLDER
  2
AcDbPlaceHolder
  3
ObjectDBX Classes
 90
        0
280
     0
281
     0
  0
CLASS
  1
LAYOUT
  2
AcDbLayout
  3
ObjectDBX Classes
 90
        0
280
     0
281
     0
  0
ENDSEC
  0
SECTION
  2
TABLES
  0
TABLE
  2
VPORT
  5
8
330
0
100
AcDbSymbolTable
 70
     1
  0
VPORT
  5
28
330
8
100
AcDbSymbolTableRecord
100
AcDbViewportTableRecord
  2
*Active
 70
     0
 10
0.0
 20
0.0
 11
1.0
 21
1.0
 12
1.375
 22
1.0625
 13
0.0
 23
0.0
 14
1.0
 24
1.0
 15
0.0
 25
0.0
 16
0.0
 26
0.0
 36
1.0
 17
0.0
 27
0.0
 37
0.0
 40
2.125
 41
1.294117647058823
 42
50.0
 43
0.0
 44
0.0
 50
0.0
 51
0.0
 71
     0
 72
   100
 73
     1
 74
     1
 75
     0
 76
     0
 77
     0
 78
     0
281
     0
 65
     1
110
0.0
120
0.0
130
0.0
111
1.0
121
0.0
131
0.0
112
0.0
122
1.0
132
0.0
 79
     0
146
0.0
  0
ENDTAB
  0
TABLE
  2
LTYPE
  5
5
330
0
100
AcDbSymbolTable
 70
    59
  0
LTYPE
  5
29
330
5
100
AcDbSymbolTableRecord
100
AcDbLinetypeTableRecord
  2
ByBlock
 70
     0
  3

 72
    65
 73
     0
 40
0.0
  0
LTYPE
  5
2A
330
5
100
AcDbSymbolTableRecord
100
AcDbLinetypeTableRecord
  2
ByLayer
 70
     0
  3

 72
    65
 73
     0
 40
0.0
  0
LTYPE
  5
2B
330
5
100
AcDbSymbolTableRecord
100
AcDbLinetypeTableRecord
  2
Continuous
 70
     0
  3
Solid line
 72
    65
 73
     0
 40
0.0
  0
LTYPE
  5
40
330
5
100
AcDbSymbolTableRecord
100
AcDbLinetypeTableRecord
  2
BY_STANDARD
 70
     0
  3
By Standard ____________    ____    ____   _
 72
    65
 73
     6
 40
1.240299999999999
 49
0.6614
 74
     0
 49
-0.0827
 74
     0
 49
0.1654
 74
     0
 49
-0.0827
 74
     0
 49
0.1654
 74
     0
 49
-0.0827
 74
     0
  0
LTYPE
  5
41
330
5
100
AcDbSymbolTableRecord
100
AcDbLinetypeTableRecord
  2
CHAIN
 70
     0
  3
Chain ____ _ ____ _ ____ _ ____ _ ____ _ ____
 72
    65
 73
     4
 40
0.7087
 49
0.4724000000000001
 74
     0
 49
-0.0591
 74
     0
 49
0.1181
 74
     0
 49
-0.0591
 74
     0
  0
LTYPE
  5
42
330
5
100
AcDbSymbolTableRecord
100
AcDbLinetypeTableRecord
  2
DASH_DOT
 70
     0
  3
Dash dot __ . __ . __ . __ . __ . __ . __ . __
 72
    65
 73
     4
 40
0.37
 49
0.24
 74
     0
 49
-0.06
 74
     0
 49
0.01
 74
     0
 49
-0.06
 74
     0
  0
LTYPE
  5
43
330
5
100
AcDbSymbolTableRecord
100
AcDbLinetypeTableRecord
  2
DOUBLE_DASH_DOT
 70
     0
  3
Double-Dash Dot __ __ . __ __ . __ __ . __ _
 72
    65
 73
     6
 40
0.4398
 49
0.24
 74
     0
 49
-0.06
 74
     0
 49
0.0098
 74
     0
 49
-0.06
 74
     0
 49
0.01
 74
     0
 49
-0.06
 74
     0
  0
LTYPE
  5
44
330
5
100
AcDbSymbolTableRecord
100
AcDbLinetypeTableRecord
  2
DASH_TRIPLE_DOT
 70
     0
  3
Dash Triple-Dot _ . . . _ . . . _ . . . _
 72
    65
 73
     8
 40
0.51
 49
0.24
 74
     0
 49
-0.06
 74
     0
 49
0.01
 74
     0
 49
-0.06
 74
     0
 49
0.01
 74
     0
 49
-0.06
 74
     0
 49
0.01
 74
     0
 49
-0.06
 74
     0
  0
LTYPE
  5
45
330
5
100
AcDbSymbolTableRecord
100
AcDbLinetypeTableRecord
  2
DASHED
 70
     0
  3
Dashed __ __ __ __ __ __ __ __ __ __ __ __ __ _
 72
    65
 73
     2
 40
0.2067
 49
0.1654
 74
     0
 49
-0.0413
 74
     0
  0
LTYPE
  5
46
330
5
100
AcDbSymbolTableRecord
100
AcDbLinetypeTableRecord
  2
DASH_DOUBLE_DOT
 70
     0
  3
Dash Double-Dot __ . . __ . . __ . . __ . .
 72
    65
 73
     6
 40
0.4398
 49
0.24
 74
     0
 49
-0.06
 74
     0
 49
0.0098
 74
     0
 49
-0.06
 74
     0
 49
0.01
 74
     0
 49
-0.06
 74
     0
  0
LTYPE
  5
47
330
5
100
AcDbSymbolTableRecord
100
AcDbLinetypeTableRecord
  2
DASHED_SPACE
 70
     0
  3
Dashed Space __ __ __ __ __ __ __ __ __ __ __ _
 72
    65
 73
     2
 40
0.2067
 49
0.1654
 74
     0
 49
-0.0413
 74
     0
  0
LTYPE
  5
48
330
5
100
AcDbSymbolTableRecord
100
AcDbLinetypeTableRecord
  2
DOTTED
 70
     0
  3
Dotted . . . . . . . . . . . . . . . . . . . . 
 72
    65
 73
     2
 40
0.0482
 49
0.0069
 74
     0
 49
-0.0413
 74
     0
  0
LTYPE
  5
49
330
5
100
AcDbSymbolTableRecord
100
AcDbLinetypeTableRecord
  2
DOUBLE_DASH_CHAIN
 70
     0
  3
Double-Dash Chain ______  __  __  ______  __  _
 72
    65
 73
     6
 40
1.240299999999999
 49
0.6614
 74
     0
 49
-0.0827
 74
     0
 49
0.1654
 74
     0
 49
-0.0827
 74
     0
 49
0.1654
 74
     0
 49
-0.0827
 74
     0
  0
LTYPE
  5
4B
330
5
100
AcDbSymbolTableRecord
100
AcDbLinetypeTableRecord
  2
DOUBLE_DASH_DOUBLE_DOT
 70
     0
  3
Double-Dash Double-dot _ _ . . _ _ . . _
 72
    65
 73
     8
 40
0.7400000000000001
 49
0.24
 74
     0
 49
-0.06
 74
     0
 49
0.24
 74
     0
 49
-0.06
 74
     0
 49
0.01
 74
     0
 49
-0.06
 74
     0
 49
0.01
 74
     0
 49
-0.06
 74
     0
  0
LTYPE
  5
4C
330
5
100
AcDbSymbolTableRecord
100
AcDbLinetypeTableRecord
  2
DOUBLE_DASH_TRIPLE_DOT
 70
     0
  3
Double Dash Triple Dot __ __ . . . __ __ . .
 72
    65
 73
    10
 40
0.8100000000000001
 49
0.24
 74
     0
 49
-0.06
 74
     0
 49
0.24
 74
     0
 49
-0.06
 74
     0
 49
0.01
 74
     0
 49
-0.06
 74
     0
 49
0.01
 74
     0
 49
-0.06
 74
     0
 49
0.01
 74
     0
 49
-0.06
 74
     0
  0
LTYPE
  5
4D
330
5
100
AcDbSymbolTableRecord
100
AcDbLinetypeTableRecord
  2
LONG_DASH_DOTTED
 70
     0
  3
Long Dash Dotted ____ . ____ . ____ . ____ . _
 72
    65
 73
     4
 40
0.3543
 49
0.2362
 74
     0
 49
-0.0295
 74
     0
 49
0.0591
 74
     0
 49
-0.0295
 74
     0
  0
LTYPE
  5
4E
330
5
100
AcDbSymbolTableRecord
100
AcDbLinetypeTableRecord
  2
LONG_DASH_DOUBLE_DOT
 70
     0
  3
Long Dash Double Dot ________  .  .  ________  
 72
    65
 73
     6
 40
0.6799999999999999
 49
0.48
 74
     0
 49
-0.06
 74
     0
 49
0.01
 74
     0
 49
-0.06
 74
     0
 49
0.01
 74
     0
 49
-0.06
 74
     0
  0
LTYPE
  5
4F
330
5
100
AcDbSymbolTableRecord
100
AcDbLinetypeTableRecord
  2
LONG_DASH_TRIPLE_DOT
 70
     0
  3
Long Dash Triple Dot ____ ... ____ ... ____
 72
    65
 73
     8
 40
0.3689
 49
0.2362
 74
     0
 49
-0.0295
 74
     0
 49
0.0049
 74
     0
 49
-0.0295
 74
     0
 49
0.0049
 74
     0
 49
-0.0295
 74
     0
 49
0.0049
 74
     0
 49
-0.0295
 74
     0
  0
LTYPE
  5
50
330
5
100
AcDbSymbolTableRecord
100
AcDbLinetypeTableRecord
  2
BORDER
 70
     0
  3
Border __ __ . __ __ . __ __ . __ __ . __ __ .
 72
    65
 73
     6
 40
1.75
 49
0.5
 74
     0
 49
-0.25
 74
     0
 49
0.5
 74
     0
 49
-0.25
 74
     0
 49
0.0
 74
     0
 49
-0.25
 74
     0
  0
LTYPE
  5
51
330
5
100
AcDbSymbolTableRecord
100
AcDbLinetypeTableRecord
  2
BORDER2
 70
     0
  3
Border (.5x) __.__.__.__.__.__.__.__.__.__.__.
 72
    65
 73
     6
 40
0.875
 49
0.25
 74
     0
 49
-0.125
 74
     0
 49
0.25
 74
     0
 49
-0.125
 74
     0
 49
0.0
 74
     0
 49
-0.125
 74
     0
  0
LTYPE
  5
52
330
5
100
AcDbSymbolTableRecord
100
AcDbLinetypeTableRecord
  2
BORDERX2
 70
     0
  3
Border (2x) ____  ____  .  ____  ____  .  ___
 72
    65
 73
     6
 40
3.5
 49
1.0
 74
     0
 49
-0.5
 74
     0
 49
1.0
 74
     0
 49
-0.5
 74
     0
 49
0.0
 74
     0
 49
-0.5
 74
     0
  0
LTYPE
  5
53
330
5
100
AcDbSymbolTableRecord
100
AcDbLinetypeTableRecord
  2
CENTER
 70
     0
  3
Center ____ _ ____ _ ____ _ ____ _ ____ _ ____
 72
    65
 73
     4
 40
2.0
 49
1.25
 74
     0
 49
-0.25
 74
     0
 49
0.25
 74
     0
 49
-0.25
 74
     0
  0
LTYPE
  5
54
330
5
100
AcDbSymbolTableRecord
100
AcDbLinetypeTableRecord
  2
CENTER2
 70
     0
  3
Center (.5x) ___ _ ___ _ ___ _ ___ _ ___ _ ___
 72
    65
 73
     4
 40
1.125
 49
0.75
 74
     0
 49
-0.125
 74
     0
 49
0.125
 74
     0
 49
-0.125
 74
     0
  0
LTYPE
  5
55
330
5
100
AcDbSymbolTableRecord
100
AcDbLinetypeTableRecord
  2
CENTERX2
 70
     0
  3
Center (2x) ________  __  ________  __  _____
 72
    65
 73
     4
 40
4.0
 49
2.5
 74
     0
 49
-0.5
 74
     0
 49
0.5
 74
     0
 49
-0.5
 74
     0
  0
LTYPE
  5
56
330
5
100
AcDbSymbolTableRecord
100
AcDbLinetypeTableRecord
  2
DASHDOT2
 70
     0
  3
Dash dot (.5x) _._._._._._._._._._._._._._._.
 72
    65
 73
     4
 40
0.5
 49
0.25
 74
     0
 49
-0.125
 74
     0
 49
0.0
 74
     0
 49
-0.125
 74
     0
  0
LTYPE
  5
57
330
5
100
AcDbSymbolTableRecord
100
AcDbLinetypeTableRecord
  2
DASHDOTX2
 70
     0
  3
Dash dot (2x) ____  .  ____  .  ____  .  ___
 72
    65
 73
     4
 40
2.0
 49
1.0
 74
     0
 49
-0.5
 74
     0
 49
0.0
 74
     0
 49
-0.5
 74
     0
  0
LTYPE
  5
59
330
5
100
AcDbSymbolTableRecord
100
AcDbLinetypeTableRecord
  2
DASHED2
 70
     0
  3
Dashed (.5x) _ _ _ _ _ _ _ _ _ _ _ _ _ _ _ _ _
 72
    65
 73
     2
 40
0.375
 49
0.25
 74
     0
 49
-0.125
 74
     0
  0
LTYPE
  5
5A
330
5
100
AcDbSymbolTableRecord
100
AcDbLinetypeTableRecord
  2
DASHEDX2
 70
     0
  3
Dashed (2x) ____  ____  ____  ____  ____  ___
 72
    65
 73
     2
 40
1.5
 49
1.0
 74
     0
 49
-0.5
 74
     0
  0
LTYPE
  5
5B
330
5
100
AcDbSymbolTableRecord
100
AcDbLinetypeTableRecord
  2
DIVIDE
 70
     0
  3
Divide ____ . . ____ . . ____ . . ____ . . ____
 72
    65
 73
     6
 40
1.25
 49
0.5
 74
     0
 49
-0.25
 74
     0
 49
0.0
 74
     0
 49
-0.25
 74
     0
 49
0.0
 74
     0
 49
-0.25
 74
     0
  0
LTYPE
  5
5C
330
5
100
AcDbSymbolTableRecord
100
AcDbLinetypeTableRecord
  2
DIVIDE2
 70
     0
  3
Divide (.5x) __..__..__..__..__..__..__..__.._
 72
    65
 73
     6
 40
0.625
 49
0.25
 74
     0
 49
-0.125
 74
     0
 49
0.0
 74
     0
 49
-0.125
 74
     0
 49
0.0
 74
     0
 49
-0.125
 74
     0
  0
LTYPE
  5
5D
330
5
100
AcDbSymbolTableRecord
100
AcDbLinetypeTableRecord
  2
DIVIDEX2
 70
     0
  3
Divide (2x) ________  .  .  ________  .  .  _
 72
    65
 73
     6
 40
2.5
 49
1.0
 74
     0
 49
-0.5
 74
     0
 49
0.0
 74
     0
 49
-0.5
 74
     0
 49
0.0
 74
     0
 49
-0.5
 74
     0
  0
LTYPE
  5
5E
330
5
100
AcDbSymbolTableRecord
100
AcDbLinetypeTableRecord
  2
DOT
 70
     0
  3
Dot . . . . . . . . . . . . . . . . . . . . . .
 72
    65
 73
     2
 40
0.25
 49
0.0
 74
     0
 49
-0.25
 74
     0
  0
LTYPE
  5
5F
330
5
100
AcDbSymbolTableRecord
100
AcDbLinetypeTableRecord
  2
DOT2
 70
     0
  3
Dot (.5x) .....................................
 72
    65
 73
     2
 40
0.125
 49
0.0
 74
     0
 49
-0.125
 74
     0
  0
LTYPE
  5
60
330
5
100
AcDbSymbolTableRecord
100
AcDbLinetypeTableRecord
  2
DOTX2
 70
     0
  3
Dot (2x) .  .  .  .  .  .  .  .  .  .  .  .  . 
 72
    65
 73
     2
 40
0.5
 49
0.0
 74
     0
 49
-0.5
 74
     0
  0
LTYPE
  5
61
330
5
100
AcDbSymbolTableRecord
100
AcDbLinetypeTableRecord
  2
HIDDEN
 70
     0
  3
Hidden __ __ __ __ __ __ __ __ __ __ __ __ __ _
 72
    65
 73
     2
 40
0.375
 49
0.25
 74
     0
 49
-0.125
 74
     0
  0
LTYPE
  5
62
330
5
100
AcDbSymbolTableRecord
100
AcDbLinetypeTableRecord
  2
HIDDEN2
 70
     0
  3
Hidden (.5x) _ _ _ _ _ _ _ _ _ _ _ _ _ _ _ _ _
 72
    65
 73
     2
 40
0.1875
 49
0.125
 74
     0
 49
-0.0625
 74
     0
  0
LTYPE
  5
63
330
5
100
AcDbSymbolTableRecord
100
AcDbLinetypeTableRecord
  2
HIDDENX2
 70
     0
  3
Hidden (2x) ____ ____ ____ ____ ____ ____ ____
 72
    65
 73
     2
 40
0.75
 49
0.5
 74
     0
 49
-0.25
 74
     0
  0
LTYPE
  5
64
330
5
100
AcDbSymbolTableRecord
100
AcDbLinetypeTableRecord
  2
PHANTOM
 70
     0
  3
Phantom ______  __  __  ______  __  __  ______
 72
    65
 73
     6
 40
2.5
 49
1.25
 74
     0
 49
-0.25
 74
     0
 49
0.25
 74
     0
 49
-0.25
 74
     0
 49
0.25
 74
     0
 49
-0.25
 74
     0
  0
LTYPE
  5
65
330
5
100
AcDbSymbolTableRecord
100
AcDbLinetypeTableRecord
  2
PHANTOM2
 70
     0
  3
Phantom (.5x) ___ _ _ ___ _ _ ___ _ _ ___ _ _
 72
    65
 73
     6
 40
1.25
 49
0.625
 74
     0
 49
-0.125
 74
     0
 49
0.125
 74
     0
 49
-0.125
 74
     0
 49
0.125
 74
     0
 49
-0.125
 74
     0
  0
LTYPE
  5
66
330
5
100
AcDbSymbolTableRecord
100
AcDbLinetypeTableRecord
  2
PHANTOMX2
 70
     0
  3
Phantom (2x) ____________    ____    ____   _
 72
    65
 73
     6
 40
5.0
 49
2.5
 74
     0
 49
-0.5
 74
     0
 49
0.5
 74
     0
 49
-0.5
 74
     0
 49
0.5
 74
     0
 49
-0.5
 74
     0
  0
LTYPE
  5
67
330
5
100
AcDbSymbolTableRecord
100
AcDbLinetypeTableRecord
  2
ACAD_ISO02W100
 70
     0
  3
ISO dash __ __ __ __ __ __ __ __ __ __ __ __ __
 72
    65
 73
     2
 40
0.59
 49
0.47
 74
     0
 49
-0.12
 74
     0
  0
LTYPE
  5
68
330
5
100
AcDbSymbolTableRecord
100
AcDbLinetypeTableRecord
  2
ACAD_ISO03W100
 70
     0
  3
ISO dash space __    __    __    __    __    __
 72
    65
 73
     2
 40
1.179999999999999
 49
0.47
 74
     0
 49
-0.71
 74
     0
  0
LTYPE
  5
69
330
5
100
AcDbSymbolTableRecord
100
AcDbLinetypeTableRecord
  2
ACAD_ISO04W100
 70
     0
  3
ISO long-dash dot ____ . ____ . ____ . ____ . _
 72
    65
 73
     4
 40
1.179999999999999
 49
0.9399999999999998
 74
     0
 49
-0.12
 74
     0
 49
0.0
 74
     0
 49
-0.12
 74
     0
  0
LTYPE
  5
6A
330
5
100
AcDbSymbolTableRecord
100
AcDbLinetypeTableRecord
  2
ACAD_ISO05W100
 70
     0
  3
ISO long-dash double-dot ____ .. ____ .. ____ .
 72
    65
 73
     6
 40
1.299999999999999
 49
0.9399999999999998
 74
     0
 49
-0.12
 74
     0
 49
0.0
 74
     0
 49
-0.12
 74
     0
 49
0.0
 74
     0
 49
-0.12
 74
     0
  0
LTYPE
  5
6B
330
5
100
AcDbSymbolTableRecord
100
AcDbLinetypeTableRecord
  2
ACAD_ISO06W100
 70
     0
  3
ISO long-dash triple-dot ____ ... ____ ... ____
 72
    65
 73
     8
 40
1.419999999999999
 49
0.9399999999999998
 74
     0
 49
-0.12
 74
     0
 49
0.0
 74
     0
 49
-0.12
 74
     0
 49
0.0
 74
     0
 49
-0.12
 74
     0
 49
0.0
 74
     0
 49
-0.12
 74
     0
  0
LTYPE
  5
6C
330
5
100
AcDbSymbolTableRecord
100
AcDbLinetypeTableRecord
  2
ACAD_ISO07W100
 70
     0
  3
ISO dot . . . . . . . . . . . . . . . . . . . .
 72
    65
 73
     2
 40
0.12
 49
0.0
 74
     0
 49
-0.12
 74
     0
  0
LTYPE
  5
6D
330
5
100
AcDbSymbolTableRecord
100
AcDbLinetypeTableRecord
  2
ACAD_ISO08W100
 70
     0
  3
ISO long-dash short-dash ____ __ ____ __ ____ _
 72
    65
 73
     4
 40
0.95
 49
0.47
 74
     0
 49
-0.12
 74
     0
 49
0.24
 74
     0
 49
-0.12
 74
     0
  0
LTYPE
  5
6E
330
5
100
AcDbSymbolTableRecord
100
AcDbLinetypeTableRecord
  2
ACAD_ISO09W100
 70
     0
  3
ISO long-dash double-short-dash ____ __ __ ____
 72
    65
 73
     6
 40
1.31
 49
0.47
 74
     0
 49
-0.12
 74
     0
 49
0.24
 74
     0
 49
-0.12
 74
     0
 49
0.24
 74
     0
 49
-0.12
 74
     0
  0
LTYPE
  5
6F
330
5
100
AcDbSymbolTableRecord
100
AcDbLinetypeTableRecord
  2
ACAD_ISO10W100
 70
     0
  3
ISO dash dot __ . __ . __ . __ . __ . __ . __ .
 72
    65
 73
     4
 40
0.71
 49
0.47
 74
     0
 49
-0.12
 74
     0
 49
0.0
 74
     0
 49
-0.12
 74
     0
  0
LTYPE
  5
70
330
5
100
AcDbSymbolTableRecord
100
AcDbLinetypeTableRecord
  2
ACAD_ISO11W100
 70
     0
  3
ISO double-dash dot __ __ . __ __ . __ __ . __ 
 72
    65
 73
     6
 40
1.299999999999999
 49
0.47
 74
     0
 49
-0.12
 74
     0
 49
0.47
 74
     0
 49
-0.12
 74
     0
 49
0.0
 74
     0
 49
-0.12
 74
     0
  0
LTYPE
  5
71
330
5
100
AcDbSymbolTableRecord
100
AcDbLinetypeTableRecord
  2
ACAD_ISO12W100
 70
     0
  3
ISO dash double-dot __ . . __ . . __ . . __ . .
 72
    65
 73
     6
 40
0.8299999999999998
 49
0.47
 74
     0
 49
-0.12
 74
     0
 49
0.0
 74
     0
 49
-0.12
 74
     0
 49
0.0
 74
     0
 49
-0.12
 74
     0
  0
LTYPE
  5
72
330
5
100
AcDbSymbolTableRecord
100
AcDbLinetypeTableRecord
  2
ACAD_ISO13W100
 70
     0
  3
ISO double-dash double-dot __ __ . . __ __ . . 
 72
    65
 73
     8
 40
1.419999999999999
 49
0.47
 74
     0
 49
-0.12
 74
     0
 49
0.47
 74
     0
 49
-0.12
 74
     0
 49
0.0
 74
     0
 49
-0.12
 74
     0
 49
0.0
 74
     0
 49
-0.12
 74
     0
  0
LTYPE
  5
73
330
5
100
AcDbSymbolTableRecord
100
AcDbLinetypeTableRecord
  2
ACAD_ISO14W100
 70
     0
  3
ISO dash triple-dot __ . . . __ . . . __ . . . 
 72
    65
 73
     8
 40
0.95
 49
0.47
 74
     0
 49
-0.12
 74
     0
 49
0.0
 74
     0
 49
-0.12
 74
     0
 49
0.0
 74
     0
 49
-0.12
 74
     0
 49
0.0
 74
     0
 49
-0.12
 74
     0
  0
LTYPE
  5
74
330
5
100
AcDbSymbolTableRecord
100
AcDbLinetypeTableRecord
  2
ACAD_ISO15W100
 70
     0
  3
ISO double-dash triple-dot __ __ . . . __ __ . 
 72
    65
 73
    10
 40
1.539999999999999
 49
0.47
 74
     0
 49
-0.12
 74
     0
 49
0.47
 74
     0
 49
-0.12
 74
     0
 49
0.0
 74
     0
 49
-0.12
 74
     0
 49
0.0
 74
     0
 49
-0.12
 74
     0
 49
0.0
 74
     0
 49
-0.12
 74
     0
  0
LTYPE
  5
77
330
5
100
AcDbSymbolTableRecord
100
AcDbLinetypeTableRecord
  2
FENCELINE1
 70
     0
  3
Fenceline circle ----0-----0----0-----0----0---
 72
    65
 73
     4
 40
1.45
 49
0.25
 74
     0
 49
-0.1
 74
     4
 75
   133
340
76
 46
0.1
 50
0.0
 44
-0.1
 45
0.0
 49
-0.1
 74
     0
 49
1.0
 74
     0
  0
LTYPE
  5
78
330
5
100
AcDbSymbolTableRecord
100
AcDbLinetypeTableRecord
  2
FENCELINE2
 70
     0
  3
Fenceline square ----[]-----[]----[]-----[]----
 72
    65
 73
     4
 40
1.45
 49
0.25
 74
     0
 49
-0.1
 74
     4
 75
   132
340
76
 46
0.1
 50
0.0
 44
-0.1
 45
0.0
 49
-0.1
 74
     0
 49
1.0
 74
     0
  0
LTYPE
  5
79
330
5
100
AcDbSymbolTableRecord
100
AcDbLinetypeTableRecord
  2
TRACKS
 70
     0
  3
Tracks -|-|-|-|-|-|-|-|-|-|-|-|-|-|-|-|-|-|-|-|
 72
    65
 73
     2
 40
0.3
 49
0.15
 74
     4
 75
   130
340
76
 46
0.25
 50
0.0
 44
0.0
 45
0.0
 49
0.15
 74
     0
  0
LTYPE
  5
7A
330
5
100
AcDbSymbolTableRecord
100
AcDbLinetypeTableRecord
  2
BATTING
 70
     0
  3
Batting SSSSSSSSSSSSSSSSSSSSSSSSSSSSSSSSSSSSSSS
 72
    65
 73
     4
 40
0.4001000000000001
 49
0.0001
 74
     0
 49
-0.1
 74
     4
 75
   134
340
76
 46
0.1
 50
0.0
 44
-0.1
 45
0.0
 49
-0.2
 74
     4
 75
   134
340
76
 46
0.1
 50
180.0
 44
0.1
 45
0.0
 49
-0.1
 74
     0
  0
LTYPE
  5
7B
330
5
100
AcDbSymbolTableRecord
100
AcDbLinetypeTableRecord
  2
HOT_WATER_SUPPLY
 70
     0
  3
Hot water supply ---- HW ---- HW ---- HW ----
 72
    65
 73
     3
 40
0.9
 49
0.5
 74
     0
 49
-0.2
 74
     2
 75
     0
340
26
 46
0.1
 50
0.0
 44
-0.1
 45
-0.05
  9
HW
 49
-0.2
 74
     0
  0
LTYPE
  5
7C
330
5
100
AcDbSymbolTableRecord
100
AcDbLinetypeTableRecord
  2
GAS_LINE
 70
     0
  3
Gas line ----GAS----GAS----GAS----GAS----GAS---
 72
    65
 73
     3
 40
0.95
 49
0.5
 74
     0
 49
-0.2
 74
     2
 75
     0
340
26
 46
0.1
 50
0.0
 44
-0.1
 45
-0.05
  9
GAS
 49
-0.25
 74
     0
  0
LTYPE
  5
7D
330
5
100
AcDbSymbolTableRecord
100
AcDbLinetypeTableRecord
  2
ZIGZAG
 70
     0
  3
Zig zag /\/\/\/\/\/\/\/\/\/\/\/\/\/\/\/\/\/\/\/
 72
    65
 73
     4
 40
0.8001000000000001
 49
0.0001
 74
     0
 49
-0.2
 74
     4
 75
   131
340
76
 46
0.2
 50
0.0
 44
-0.2
 45
0.0
 49
-0.4
 74
     4
 75
   131
340
76
 46
0.2
 50
180.0
 44
0.2
 45
0.0
 49
-0.2
 74
     0
  0
ENDTAB
  0
TABLE
  2
LAYER
  5
2
330
0
100
AcDbSymbolTable
 70
    25
  0
LAYER
  5
25
330
2
100
AcDbSymbolTableRecord
100
AcDbLayerTableRecord
  2
0
 70
     0
 62
     7
  6
Continuous
370
    -3
390
F
  0
LAYER
  5
81
330
2
100
AcDbSymbolTableRecord
100
AcDbLayerTableRecord
  2
Border (ANSI)
 70
     0
 62
     7
  6
Continuous
370
    70
390
F
  0
LAYER
  5
86
330
2
100
AcDbSymbolTableRecord
100
AcDbLayerTableRecord
  2
Dimension (ANSI)
 70
     0
 62
     7
  6
Continuous
370
    25
390
F
  0
LAYER
  5
89
330
2
100
AcDbSymbolTableRecord
100
AcDbLayerTableRecord
  2
Hidden Narrow (ANSI)
 70
     0
 62
     7
  6
DASHED
370
    25
390
F
  0
LAYER
  5
8E
330
2
100
AcDbSymbolTableRecord
100
AcDbLayerTableRecord
  2
Symbol (ANSI)
 70
     0
 62
     7
  6
Continuous
370
    25
390
F
  0
LAYER
  5
91
330
2
100
AcDbSymbolTableRecord
100
AcDbLayerTableRecord
  2
Visible (ANSI)
 70
     0
 62
     7
  6
Continuous
370
    50
390
F
  0
ENDTAB
  0
TABLE
  2
STYLE
  5
3
330
0
100
AcDbSymbolTable
 70
    12
  0
STYLE
  5
26
330
3
100
AcDbSymbolTableRecord
100
AcDbTextStyleTableRecord
  2
Standard
 70
     0
 40
0.0
 41
1.0
 50
0.0
 71
     0
 42
0.2
  3
TAHOMA.TTF
  4

1001
ACAD
1000
Tahoma
1071
      256
  0
STYLE
  5
76
330
3
100
AcDbSymbolTableRecord
100
AcDbTextStyleTableRecord
  2

 70
     1
 40
0.0
 41
1.0
 50
0.0
 71
     0
 42
0.2
  3
ltypeshp.shx
  4

  0
STYLE
  5
96
330
3
100
AcDbSymbolTableRecord
100
AcDbTextStyleTableRecord
  2
Label Text (ANSI)
 70
     0
 40
0.0
 41
1.0
 50
0.0
 71
     0
 42
0.2
  3
TAHOMA.TTF
  4

1001
ACAD
1000
Tahoma
1071
      256
  0
STYLE
  5
97
330
3
100
AcDbSymbolTableRecord
100
AcDbTextStyleTableRecord
  2
Label Text (DIN)
 70
     0
 40
0.0
 41
1.0
 50
0.0
 71
     0
 42
0.2
  3
isocpeur.ttf
  4

1001
ACAD
1000
ISOCPEUR
1071
      256
  0
STYLE
  5
98
330
3
100
AcDbSymbolTableRecord
100
AcDbTextStyleTableRecord
  2
Label Text (ISO)
 70
     0
 40
0.0
 41
1.0
 50
0.0
 71
     0
 42
0.2
  3
TAHOMA.TTF
  4

1001
ACAD
1000
Tahoma
1071
      256
  0
STYLE
  5
99
330
3
100
AcDbSymbolTableRecord
100
AcDbTextStyleTableRecord
  2
Label Text (JIS)
 70
     0
 40
0.0
 41
1.0
 50
0.0
 71
     0
 42
0.2
  3
TAHOMA.TTF
  4

1001
ACAD
1000
Tahoma
1071
      256
  0
STYLE
  5
9A
330
3
100
AcDbSymbolTableRecord
100
AcDbTextStyleTableRecord
  2
Note Text (ANSI)
 70
     0
 40
0.0
 41
1.0
 50
0.0
 71
     0
 42
0.2
  3
TAHOMA.TTF
  4

1001
ACAD
1000
Tahoma
1071
      256
  0
STYLE
  5
9B
330
3
100
AcDbSymbolTableRecord
100
AcDbTextStyleTableRecord
  2
Note Text (DIN)
 70
     0
 40
0.0
 41
1.0
 50
0.0
 71
     0
 42
0.2
  3
isocpeur.ttf
  4

1001
ACAD
1000
ISOCPEUR
1071
      256
  0
STYLE
  5
9C
330
3
100
AcDbSymbolTableRecord
100
AcDbTextStyleTableRecord
  2
Note Text (ISO)
 70
     0
 40
0.0
 41
1.0
 50
0.0
 71
     0
 42
0.2
  3
TAHOMA.TTF
  4

1001
ACAD
1000
Tahoma
1071
      256
  0
STYLE
  5
9D
330
3
100
AcDbSymbolTableRecord
100
AcDbTextStyleTableRecord
  2
Note Text (JIS)
 70
     0
 40
0.0
 41
1.0
 50
0.0
 71
     0
 42
0.2
  3
TAHOMA.TTF
  4

1001
ACAD
1000
Tahoma
1071
      256
  0
STYLE
  5
F1
330
3
100
AcDbSymbolTableRecord
100
AcDbTextStyleTableRecord
  2
Text Style29
 70
     0
 40
0.0
 41
1.0
 50
0.0
 71
     0
 42
0.2
  3
TAHOMA.TTF
  4

1001
ACAD
1000
Tahoma
1071
      256
  0
STYLE
  5
1E6
330
3
100
AcDbSymbolTableRecord
100
AcDbTextStyleTableRecord
  2
Text Style6
 70
     0
 40
0.0
 41
1.0
 50
0.0
 71
     0
 42
0.2
  3
AIGDT___.TTF
  4

1001
ACAD
1000
AIGDT
1071
      514
  0
ENDTAB
  0
TABLE
  2
VIEW
  5
6
330
0
100
AcDbSymbolTable
 70
     0
  0
ENDTAB
  0
TABLE
  2
UCS
  5
7
330
0
100
AcDbSymbolTable
 70
     0
  0
ENDTAB
  0
TABLE
  2
APPID
  5
9
330
0
100
AcDbSymbolTable
 70
     1
  0
APPID
  5
27
330
9
100
AcDbSymbolTableRecord
100
AcDbRegAppTableRecord
  2
ACAD
 70
     0
  0
ENDTAB
  0
TABLE
  2
DIMSTYLE
  5
A
330
0
100
AcDbSymbolTable
 70
    15
100
AcDbDimStyleTable
 71
     0
  0
DIMSTYLE
105
3F
330
A
100
AcDbSymbolTableRecord
100
AcDbDimStyleTableRecord
  2
Standard
 70
     0
340
26
  0
DIMSTYLE
105
9E
330
A
100
AcDbSymbolTableRecord
100
AcDbDimStyleTableRecord
  2
Architectural (ANSI)
 70
     0
 40
0.25
 41
0.0984251946210861
 42
0.0625
 43
0.2362204724409449
 44
0.125
 45
0.00000001
 46
0.3937007874015748
 78
     4
 79
     3
140
0.1200000047683716
144
0.0833333333333333
147
0.031496062992126
171
     1
176
   256
177
   256
178
   256
272
     2
274
     1
276
     2
277
     4
284
    12
286
    12
340
9A
371
    -1
372
    -1
  0
DIMSTYLE
105
9F
330
A
100
AcDbSymbolTableRecord
100
AcDbDimStyleTableRecord
  2
Architectural (ANSI)$7
 70
     0
 40
0.25
 41
0.0984251946210861
 42
0.0625
 43
0.2362204724409449
 44
0.125
 45
0.00000001
 46
0.3937007874015748
 78
     4
 79
     3
140
0.1200000047683716
144
0.0833333333333333
147
0.031496062992126
171
     1
176
   256
177
   256
178
   256
272
     2
274
     1
276
     2
277
     4
284
    12
286
    12
340
9A
371
    -1
372
    -1
  0
DIMSTYLE
105
A0
330
A
100
AcDbSymbolTableRecord
100
AcDbDimStyleTableRecord
  2
Default - Fraction (ANSI)
 70
     0
 40
0.25
 41
0.0984251946210861
 42
0.0625
 43
0.2362204724409449
 44
0.125
 45
0.00000001
 46
0.3937007874015748
 78
    12
 79
     3
140
0.1200000047683716
147
0.031496062992126
171
     1
176
   256
177
   256
178
   256
272
     2
274
     1
276
     2
277
     5
284
    12
286
    12
340
9A
371
    -1
372
    -1
  0
DIMSTYLE
105
A1
330
A
100
AcDbSymbolTableRecord
100
AcDbDimStyleTableRecord
  2
Default - Fraction (ANSI)$7
 70
     0
 40
0.25
 41
0.0984251946210861
 42
0.0625
 43
0.2362204724409449
 44
0.125
 45
0.00000001
 46
0.3937007874015748
 78
    12
 79
     3
140
0.1200000047683716
147
0.031496062992126
171
     1
176
   256
177
   256
178
   256
272
     2
274
     1
276
     2
277
     5
284
    12
286
    12
340
9A
371
    -1
372
    -1
  0
DIMSTYLE
105
A2
330
A
100
AcDbSymbolTableRecord
100
AcDbDimStyleTableRecord
  2
Default - mm (ANSI)
 70
     0
 40
0.25
 41
0.0984251946210861
 42
0.063
 43
0.2362204724409449
 44
0.125
 45
0.00000001
 46
0.3937007874015748
 73
     0
140
0.1200000047683716
143
1.0
144
25.4
147
0.031496062992126
171
     1
176
   256
177
   256
178
   256
179
     1
271
     2
272
     2
274
     1
340
9A
371
    -1
372
    -1
  0
DIMSTYLE
105
A3
330
A
100
AcDbSymbolTableRecord
100
AcDbDimStyleTableRecord
  2
Default - mm (ANSI)$7
 70
     0
 40
0.25
 41
0.0984251946210861
 42
0.063
 43
0.2362204724409449
 44
0.125
 45
0.00000001
 46
0.3937007874015748
 73
     0
140
0.1200000047683716
143
1.0
144
25.4
147
0.031496062992126
171
     1
176
   256
177
   256
178
   256
179
     1
271
     2
272
     2
274
     1
340
9A
371
    -1
372
    -1
  0
DIMSTYLE
105
A4
330
A
100
AcDbSymbolTableRecord
100
AcDbDimStyleTableRecord
  2
Default - mm [in] (ANSI)
 70
     0
  4
 in
 40
0.25
 41
0.0984251946210861
 42
0.063
 43
0.25
 44
0.125
 45
0.00000001
 46
0.3937007874015748
 73
     0
 78
     4
 79
     1
140
0.1200000047683716
143
0.03937
144
25.4
147
0.031496062992126
170
     1
171
     3
176
   256
177
   256
178
   256
179
     1
271
     2
272
     2
274
     3
284
     4
286
     4
340
9A
371
    -1
372
    -1
  0
DIMSTYLE
105
A5
330
A
100
AcDbSymbolTableRecord
100
AcDbDimStyleTableRecord
  2
Default - mm [in] (ANSI)$7
 70
     0
  4
 in
 40
0.25
 41
0.0984251946210861
 42
0.063
 43
0.25
 44
0.125
 45
0.00000001
 46
0.3937007874015748
 73
     0
 78
     4
 79
     1
140
0.1200000047683716
143
0.03937
144
25.4
147
0.031496062992126
170
     1
171
     3
176
   256
177
   256
178
   256
179
     1
271
     2
272
     2
274
     3
284
     4
286
     4
340
9A
371
    -1
372
    -1
  0
DIMSTYLE
105
A6
330
A
100
AcDbSymbolTableRecord
100
AcDbDimStyleTableRecord
  2
Default (ANSI)
 70
     0
 40
0.25
 41
0.0984251946210861
 42
0.0625
 43
0.2362204724409449
 44
0.125
 45
0.00000001
 46
0.3937007874015748
140
0.1200000047683716
147
0.031496062992126
171
     1
176
   256
177
   256
178
   256
179
     2
271
     3
272
     3
274
     1
340
9A
371
    -1
372
    -1
  0
DIMSTYLE
105
A7
330
A
100
AcDbSymbolTableRecord
100
AcDbDimStyleTableRecord
  2
Default (ANSI)$7
 70
     0
 40
0.25
 41
0.0984251946210861
 42
0.0625
 43
0.2362204724409449
 44
0.125
 45
0.00000001
 46
0.3937007874015748
140
0.1200000047683716
147
0.031496062992126
171
     1
176
   256
177
   256
178
   256
179
     2
271
     3
272
     3
274
     1
340
9A
371
    -1
372
    -1
  0
DIMSTYLE
105
B6
330
A
100
AcDbSymbolTableRecord
100
AcDbDimStyleTableRecord
  2
Miscellaneous Object (ANSI)
 70
     0
 40
0.25
 41
0.1968503892421722
 42
0.0625
 43
0.2362204724409449
 44
0.125
 45
0.00000001
 46
0.3937007874015748
140
0.1799999922513962
146
0.666666721856155
147
0.031496062992126
171
     1
176
   256
177
   256
178
   256
271
     2
272
     2
274
     1
340
96
341
A8
371
    -1
372
    -1
  0
DIMSTYLE
105
B7
330
A
100
AcDbSymbolTableRecord
100
AcDbDimStyleTableRecord
  2
Miscellaneous Object (ANSI)$7
 70
     0
 40
0.25
 41
0.1959999948740005
 42
0.0625
 43
0.2362204724409449
 44
0.125
 45
0.00000001
 46
0.3937007874015748
140
0.1799999922513962
146
0.666666721856155
147
0.031496062992126
171
     1
176
   256
177
   256
178
   256
271
     2
272
     2
274
     1
340
96
341
A8
371
    -1
372
    -1
  0
DIMSTYLE
105
B8
330
A
100
AcDbSymbolTableRecord
100
AcDbDimStyleTableRecord
  2
Alternate (ANSI)
 70
     0
 40
0.25
 41
0.0979999974370003
340
26
342
B9
  0
DIMSTYLE
105
CA
330
A
100
AcDbSymbolTableRecord
100
AcDbDimStyleTableRecord
  2
Datum (ANSI)
 70
     0
 40
0.25
 41
0.0979999974370003
340
26
342
B9
  0
ENDTAB
  0
TABLE
  2
BLOCK_RECORD
  5
1
330
0
100
AcDbSymbolTable
 70
    24
  0
BLOCK_RECORD
  5
37
330
1
100
AcDbSymbolTableRecord
100
AcDbBlockTableRecord
  2
*Model_Space
340
3A
  0
BLOCK_RECORD
  5
33
330
1
100
AcDbSymbolTableRecord
100
AcDbBlockTableRecord
  2
*Paper_Space
340
36
  0
BLOCK_RECORD
  5
3B
330
1
100
AcDbSymbolTableRecord
100
AcDbBlockTableRecord
  2
*Paper_Space0
340
3E
  0
BLOCK_RECORD
  5
A8
330
1
100
AcDbSymbolTableRecord
100
AcDbBlockTableRecord
  2
Filled-1
340
0
  0
BLOCK_RECORD
  5
B9
330
1
100
AcDbSymbolTableRecord
100
AcDbBlockTableRecord
  2
_Closed
340
0
  0
BLOCK_RECORD
  5
C0
330
1
100
AcDbSymbolTableRecord
100
AcDbBlockTableRecord
  2
DatumFilled45
340
0
  0
BLOCK_RECORD
  5
CB
330
1
100
AcDbSymbolTableRecord
100
AcDbBlockTableRecord
  2
Borders Default Border
340
0
102
{BLKREFS
331
FC
102
}
  0
BLOCK_RECORD
  5
148
330
1
100
AcDbSymbolTableRecord
100
AcDbBlockTableRecord
  2
Origin Indicator Symbol1
340
0
102
{BLKREFS
331
16E
102
}
  0
BLOCK_RECORD
  5
199
330
1
100
AcDbSymbolTableRecord
100
AcDbBlockTableRecord
  2
Origin Indicator Symbol2
340
0
102
{BLKREFS
331
1BF
102
}
  0
BLOCK_RECORD
  5
1C1
330
1
100
AcDbSymbolTableRecord
100
AcDbBlockTableRecord
  2
Hole Table1
340
0
102
{BLKREFS
331
240
102
}
  0
BLOCK_RECORD
  5
241
330
1
100
AcDbSymbolTableRecord
100
AcDbBlockTableRecord
  2
Leader Text1
340
0
102
{BLKREFS
331
252
102
}
  0
BLOCK_RECORD
  5
253
330
1
100
AcDbSymbolTableRecord
100
AcDbBlockTableRecord
  2
Leader Text2
340
0
102
{BLKREFS
331
264
102
}
  0
BLOCK_RECORD
  5
265
330
1
100
AcDbSymbolTableRecord
100
AcDbBlockTableRecord
  2
Leader Text3
340
0
102
{BLKREFS
331
276
102
}
  0
BLOCK_RECORD
  5
277
330
1
100
AcDbSymbolTableRecord
100
AcDbBlockTableRecord
  2
Leader Text4
340
0
102
{BLKREFS
331
288
102
}
  0
BLOCK_RECORD
  5
289
330
1
100
AcDbSymbolTableRecord
100
AcDbBlockTableRecord
  2
Leader Text5
340
0
102
{BLKREFS
331
29A
102
}
  0
BLOCK_RECORD
  5
29B
330
1
100
AcDbSymbolTableRecord
100
AcDbBlockTableRecord
  2
Leader Text6
340
0
102
{BLKREFS
331
2AC
102
}
  0
BLOCK_RECORD
  5
2AD
330
1
100
AcDbSymbolTableRecord
100
AcDbBlockTableRecord
  2
Hole Table2
340
0
102
{BLKREFS
331
33C
102
}
  0
BLOCK_RECORD
  5
33D
330
1
100
AcDbSymbolTableRecord
100
AcDbBlockTableRecord
  2
Leader Text7
340
0
102
{BLKREFS
331
34E
102
}
  0
BLOCK_RECORD
  5
34F
330
1
100
AcDbSymbolTableRecord
100
AcDbBlockTableRecord
  2
Leader Text8
340
0
102
{BLKREFS
331
360
102
}
  0
BLOCK_RECORD
  5
361
330
1
100
AcDbSymbolTableRecord
100
AcDbBlockTableRecord
  2
Leader Text9
340
0
102
{BLKREFS
331
372
102
}
  0
BLOCK_RECORD
  5
373
330
1
100
AcDbSymbolTableRecord
100
AcDbBlockTableRecord
  2
Leader Text10
340
0
102
{BLKREFS
331
384
102
}
  0
BLOCK_RECORD
  5
385
330
1
100
AcDbSymbolTableRecord
100
AcDbBlockTableRecord
  2
Leader Text11
340
0
102
{BLKREFS
331
396
102
}
  0
BLOCK_RECORD
  5
397
330
1
100
AcDbSymbolTableRecord
100
AcDbBlockTableRecord
  2
Leader Text12
340
0
102
{BLKREFS
331
3A8
102
}
  0
BLOCK_RECORD
  5
3B9
330
1
100
AcDbSymbolTableRecord
100
AcDbBlockTableRecord
  2
Origin Indicator Symbol3
340
0
102
{BLKREFS
331
3DF
102
}
  0
BLOCK_RECORD
  5
3E0
330
1
100
AcDbSymbolTableRecord
100
AcDbBlockTableRecord
  2
Hole Table3
340
0
102
{BLKREFS
331
40D
102
}
  0
BLOCK_RECORD
  5
40E
330
1
100
AcDbSymbolTableRecord
100
AcDbBlockTableRecord
  2
Leader Text13
340
0
102
{BLKREFS
331
41F
102
}
  0
ENDTAB
  0
ENDSEC
  0
SECTION
  2
BLOCKS
  0
BLOCK
  5
38
330
37
100
AcDbEntity
  8
0
100
AcDbBlockBegin
  2
*Model_Space
 70
     0
 10
0.0
 20
0.0
 30
0.0
  3
*Model_Space
  1

  0
ENDBLK
  5
39
330
37
100
AcDbEntity
  8
0
100
AcDbBlockEnd
  0
BLOCK
  5
34
330
33
100
AcDbEntity
 67
     1
  8
0
100
AcDbBlockBegin
  2
*Paper_Space
 70
     0
 10
0.0
 20
0.0
 30
0.0
  3
*Paper_Space
  1

  0
ENDBLK
  5
35
330
33
100
AcDbEntity
 67
     1
  8
0
100
AcDbBlockEnd
  0
BLOCK
  5
3C
330
3B
100
AcDbEntity
 67
     1
  8
0
100
AcDbBlockBegin
  2
*Paper_Space0
 70
     0
 10
0.0
 20
0.0
 30
0.0
  3
*Paper_Space0
  1

  0
ENDBLK
  5
3D
330
3B
100
AcDbEntity
 67
     1
  8
0
100
AcDbBlockEnd
  0
BLOCK
  5
A9
330
A8
100
AcDbEntity
  8
0
100
AcDbBlockBegin
  2
Filled-1
 70
     0
 10
0.0
 20
0.0
 30
0.0
  3
Filled-1
  1

  0
LINE
  5
AB
330
A8
100
AcDbEntity
  8
0
 62
     0
100
AcDbLine
 10
-0.9999999999999998
 20
0.0
 30
0.0
 11
0.0
 21
0.0
 31
0.0
  0
POLYLINE
  5
AC
330
A8
100
AcDbEntity
  8
0
 62
     0
100
AcDb2dPolyline
 66
     1
 10
0.0
 20
0.0
 30
0.0
 70
   128
  0
VERTEX
  5
AD
330
AC
100
AcDbEntity
  8
0
 62
     0
100
AcDbVertex
100
AcDb2dVertex
 10
-0.9999999999999998
 20
-0.0994897959183674
 30
0.0
  0
VERTEX
  5
AE
330
AC
100
AcDbEntity
  8
0
 62
     0
100
AcDbVertex
100
AcDb2dVertex
 10
0.0
 20
0.0
 30
0.0
  0
VERTEX
  5
B0
330
AC
100
AcDbEntity
  8
0
 62
     0
100
AcDbVertex
100
AcDb2dVertex
 10
-0.9999999999999998
 20
0.0994897959183674
 30
0.0
  0
VERTEX
  5
B1
330
AC
100
AcDbEntity
  8
0
 62
     0
100
AcDbVertex
100
AcDb2dVertex
 10
-0.9999999999999998
 20
-0.0994897959183674
 30
0.0
  0
SEQEND
  5
AF
330
AC
100
AcDbEntity
  8
0
 62
     0
  0
SOLID
  5
B2
330
A8
100
AcDbEntity
  8
0
 62
     0
100
AcDbTrace
 10
-0.9999999999999998
 20
-0.0994897959183674
 30
0.0
 11
0.0
 21
0.0
 31
0.0
 12
-0.9999999999999998
 22
0.0994897959183674
 32
0.0
 13
-0.9999999999999998
 23
-0.0994897959183674
 33
0.0
  0
LINE
  5
B3
330
A8
100
AcDbEntity
  8
0
 62
     0
100
AcDbLine
 10
-0.9999999999999998
 20
-0.0994897959183674
 30
0.0
 11
0.0
 21
0.0
 31
0.0
  0
LINE
  5
B4
330
A8
100
AcDbEntity
  8
0
 62
     0
100
AcDbLine
 10
0.0
 20
0.0
 30
0.0
 11
-0.9999999999999998
 21
0.0994897959183674
 31
0.0
  0
LINE
  5
B5
330
A8
100
AcDbEntity
  8
0
 62
     0
100
AcDbLine
 10
-0.9999999999999998
 20
0.0994897959183674
 30
0.0
 11
-0.9999999999999998
 21
-0.0994897959183674
 31
0.0
  0
ENDBLK
  5
AA
330
A8
100
AcDbEntity
  8
0
100
AcDbBlockEnd
  0
BLOCK
  5
BE
330
B9
100
AcDbEntity
  8
0
100
AcDbBlockBegin
  2
_Closed
 70
     0
 10
0.0
 20
0.0
 30
0.0
  3
_Closed
  1

  0
LINE
  5
BA
330
B9
100
AcDbEntity
  8
0
  6
ByBlock
 62
     0
370
    -2
100
AcDbLine
 10
-1.0
 20
0.1666666666666666
 30
0.0
 11
0.0
 21
0.0
 31
0.0
  0
LINE
  5
BB
330
B9
100
AcDbEntity
  8
0
  6
ByBlock
 62
     0
370
    -2
100
AcDbLine
 10
0.0
 20
0.0
 30
0.0
 11
-1.0
 21
-0.1666666666666666
 31
0.0
  0
LINE
  5
BC
330
B9
100
AcDbEntity
  8
0
  6
ByBlock
 62
     0
370
    -2
100
AcDbLine
 10
-1.0
 20
0.1666666666666666
 30
0.0
 11
-1.0
 21
-0.1666666666666666
 31
0.0
  0
LINE
  5
BD
330
B9
100
AcDbEntity
  8
0
  6
ByBlock
 62
     0
370
    -2
100
AcDbLine
 10
0.0
 20
0.0
 30
0.0
 11
-1.0
 21
0.0
 31
0.0
  0
ENDBLK
  5
BF
330
B9
100
AcDbEntity
  8
0
100
AcDbBlockEnd
  0
BLOCK
  5
C1
330
C0
100
AcDbEntity
  8
0
100
AcDbBlockBegin
  2
DatumFilled45
 70
     0
 10
0.0
 20
0.0
 30
0.0
  3
DatumFilled45
  1

  0
POLYLINE
  5
C3
330
C0
100
AcDbEntity
  8
0
 62
     0
100
AcDb2dPolyline
 66
     1
 10
0.0
 20
0.0
 30
0.0
 70
   128
  0
VERTEX
  5
C4
330
C3
100
AcDbEntity
  8
0
 62
     0
100
AcDbVertex
100
AcDb2dVertex
 10
0.0
 20
0.9999999999999998
 30
0.0
  0
VERTEX
  5
C5
330
C3
100
AcDbEntity
  8
0
 62
     0
100
AcDbVertex
100
AcDb2dVertex
 10
0.0
 20
-0.9999999999999998
 30
0.0
  0
VERTEX
  5
C7
330
C3
100
AcDbEntity
  8
0
 62
     0
100
AcDbVertex
100
AcDb2dVertex
 10
-0.9999999999999998
 20
0.0
 30
0.0
  0
VERTEX
  5
C8
330
C3
100
AcDbEntity
  8
0
 62
     0
100
AcDbVertex
100
AcDb2dVertex
 10
0.0
 20
0.9999999999999998
 30
0.0
  0
SEQEND
  5
C6
330
C3
100
AcDbEntity
  8
0
 62
     0
  0
SOLID
  5
C9
330
C0
100
AcDbEntity
  8
0
 62
     0
100
AcDbTrace
 10
0.0
 20
0.9999999999999998
 30
0.0
 11
0.0
 21
-0.9999999999999998
 31
0.0
 12
-0.9999999999999998
 22
0.0
 32
0.0
 13
0.0
 23
0.9999999999999998
 33
0.0
  0
ENDBLK
  5
C2
330
C0
100
AcDbEntity
  8
0
100
AcDbBlockEnd
  0
BLOCK
  5
CC
330
CB
100
AcDbEntity
  8
0
100
AcDbBlockBegin
  2
Borders Default Border
 70
     0
 10
0.0
 20
0.0
 30
0.0
  3
Borders Default Border
  1

  0
POLYLINE
  5
CE
330
CB
100
AcDbEntity
  8
Border (ANSI)
100
AcDb2dPolyline
 66
     1
 10
0.0
 20
0.0
 30
0.0
 70
   128
  0
VERTEX
  5
CF
330
CE
100
AcDbEntity
  8
Border (ANSI)
100
AcDbVertex
100
AcDb2dVertex
 10
0.380000002740875
 20
0.380000002740875
 30
0.0
  0
VERTEX
  5
D0
330
CE
100
AcDbEntity
  8
Border (ANSI)
100
AcDbVertex
100
AcDb2dVertex
 10
0.380000002740875
 20
8.119999893068328
 30
0.0
  0
VERTEX
  5
D2
330
CE
100
AcDbEntity
  8
Border (ANSI)
100
AcDbVertex
100
AcDb2dVertex
 10
10.62000004325326
 20
8.119999893068328
 30
0.0
  0
VERTEX
  5
D3
330
CE
100
AcDbEntity
  8
Border (ANSI)
100
AcDbVertex
100
AcDb2dVertex
 10
10.62000004325326
 20
0.380000002740875
 30
0.0
  0
VERTEX
  5
D4
330
CE
100
AcDbEntity
  8
Border (ANSI)
100
AcDbVertex
100
AcDb2dVertex
 10
0.380000002740875
 20
0.380000002740875
 30
0.0
  0
SEQEND
  5
D1
330
CE
100
AcDbEntity
  8
Border (ANSI)
  0
POLYLINE
  5
D5
330
CB
100
AcDbEntity
  8
Border (ANSI)
100
AcDb2dPolyline
 66
     1
 10
0.0
 20
0.0
 30
0.0
 70
   128
  0
VERTEX
  5
D6
330
D5
100
AcDbEntity
  8
Border (ANSI)
100
AcDbVertex
100
AcDb2dVertex
 10
5.500000105129451
 20
0.1299999947623005
 30
0.0
  0
VERTEX
  5
D7
330
D5
100
AcDbEntity
  8
Border (ANSI)
100
AcDbVertex
100
AcDb2dVertex
 10
5.500000105129451
 20
0.380000002740875
 30
0.0
  0
VERTEX
  5
D9
330
D5
100
AcDbEntity
  8
Border (ANSI)
100
AcDbVertex
100
AcDb2dVertex
 10
5.413397466103861
 20
0.2300000096869281
 30
0.0
  0
VERTEX
  5
DA
330
D5
100
AcDbEntity
  8
Border (ANSI)
100
AcDbVertex
100
AcDb2dVertex
 10
5.586602368692712
 20
0.2300000096869281
 30
0.0
  0
VERTEX
  5
DB
330
D5
100
AcDbEntity
  8
Border (ANSI)
100
AcDbVertex
100
AcDb2dVertex
 10
5.500000105129451
 20
0.380000002740875
 30
0.0
  0
SEQEND
  5
D8
330
D5
100
AcDbEntity
  8
Border (ANSI)
  0
POLYLINE
  5
DC
330
CB
100
AcDbEntity
  8
Border (ANSI)
100
AcDb2dPolyline
 66
     1
 10
0.0
 20
0.0
 30
0.0
 70
   128
  0
VERTEX
  5
DD
330
DC
100
AcDbEntity
  8
Border (ANSI)
100
AcDbVertex
100
AcDb2dVertex
 10
5.500000105129451
 20
8.369999983179287
 30
0.0
  0
VERTEX
  5
DE
330
DC
100
AcDbEntity
  8
Border (ANSI)
100
AcDbVertex
100
AcDb2dVertex
 10
5.500000105129451
 20
8.119999893068328
 30
0.0
  0
VERTEX
  5
E0
330
DC
100
AcDbEntity
  8
Border (ANSI)
100
AcDbVertex
100
AcDb2dVertex
 10
5.413397466103861
 20
8.270000097319835
 30
0.0
  0
VERTEX
  5
E1
330
DC
100
AcDbEntity
  8
Border (ANSI)
100
AcDbVertex
100
AcDb2dVertex
 10
5.586602368692712
 20
8.270000097319835
 30
0.0
  0
VERTEX
  5
E2
330
DC
100
AcDbEntity
  8
Border (ANSI)
100
AcDbVertex
100
AcDb2dVertex
 10
5.500000105129451
 20
8.119999893068328
 30
0.0
  0
SEQEND
  5
DF
330
DC
100
AcDbEntity
  8
Border (ANSI)
  0
POLYLINE
  5
E3
330
CB
100
AcDbEntity
  8
Border (ANSI)
100
AcDb2dPolyline
 66
     1
 10
0.0
 20
0.0
 30
0.0
 70
   128
  0
VERTEX
  5
E4
330
E3
100
AcDbEntity
  8
Border (ANSI)
100
AcDbVertex
100
AcDb2dVertex
 10
0.1299999947623005
 20
4.250000030036986
 30
0.0
  0
VERTEX
  5
E5
330
E3
100
AcDbEntity
  8
Border (ANSI)
100
AcDbVertex
100
AcDb2dVertex
 10
0.380000002740875
 20
4.250000030036986
 30
0.0
  0
VERTEX
  5
E7
330
E3
100
AcDbEntity
  8
Border (ANSI)
100
AcDbVertex
100
AcDb2dVertex
 10
0.2300000096869281
 20
4.336602669062576
 30
0.0
  0
VERTEX
  5
E8
330
E3
100
AcDbEntity
  8
Border (ANSI)
100
AcDbVertex
100
AcDb2dVertex
 10
0.2300000096869281
 20
4.163397391011395
 30
0.0
  0
VERTEX
  5
E9
330
E3
100
AcDbEntity
  8
Border (ANSI)
100
AcDbVertex
100
AcDb2dVertex
 10
0.380000002740875
 20
4.250000030036986
 30
0.0
  0
SEQEND
  5
E6
330
E3
100
AcDbEntity
  8
Border (ANSI)
  0
POLYLINE
  5
EA
330
CB
100
AcDbEntity
  8
Border (ANSI)
100
AcDb2dPolyline
 66
     1
 10
0.0
 20
0.0
 30
0.0
 70
   128
  0
VERTEX
  5
EB
330
EA
100
AcDbEntity
  8
Border (ANSI)
100
AcDbVertex
100
AcDb2dVertex
 10
10.87000013336422
 20
4.250000030036986
 30
0.0
  0
VERTEX
  5
EC
330
EA
100
AcDbEntity
  8
Border (ANSI)
100
AcDbVertex
100
AcDb2dVertex
 10
10.62000004325326
 20
4.250000030036986
 30
0.0
  0
VERTEX
  5
EE
330
EA
100
AcDbEntity
  8
Border (ANSI)
100
AcDbVertex
100
AcDb2dVertex
 10
10.77000024750476
 20
4.336602669062576
 30
0.0
  0
VERTEX
  5
EF
330
EA
100
AcDbEntity
  8
Border (ANSI)
100
AcDbVertex
100
AcDb2dVertex
 10
10.77000024750476
 20
4.163397391011395
 30
0.0
  0
VERTEX
  5
F0
330
EA
100
AcDbEntity
  8
Border (ANSI)
100
AcDbVertex
100
AcDb2dVertex
 10
10.62000004325326
 20
4.250000030036986
 30
0.0
  0
SEQEND
  5
ED
330
EA
100
AcDbEntity
  8
Border (ANSI)
  0
MTEXT
  5
F2
330
CB
100
AcDbEntity
  8
Border (ANSI)
100
AcDbMText
 10
8.24092395498058
 20
8.16
 30
0.0
 40
0.1200000014830762
 41
0.0
 71
     7
 72
     1
  1
1
  7
Text Style29
 73
     1
 44
1.0
1001
ACAD
1000
MTEXTBEGIN
1070
    73
1070
     1
1070
    44
1040
1.0
1070
    74
1070
     0
1000
MTEXTEND
  0
MTEXT
  5
F5
330
CB
100
AcDbEntity
  8
Border (ANSI)
100
AcDbMText
 10
8.24092395498058
 20
0.2199999985169238
 30
0.0
 40
0.1200000014830762
 41
0.0
 71
     7
 72
     1
  1
1
  7
Text Style29
 73
     1
 44
1.0
1001
ACAD
1000
MTEXTBEGIN
1070
    73
1070
     1
1070
    44
1040
1.0
1070
    74
1070
     0
1000
MTEXTEND
  0
MTEXT
  5
F6
330
CB
100
AcDbEntity
  8
Border (ANSI)
100
AcDbMText
 10
2.722276993858532
 20
8.16
 30
0.0
 40
0.1200000014830762
 41
0.0
 71
     7
 72
     1
  1
2
  7
Text Style29
 73
     1
 44
1.0
1001
ACAD
1000
MTEXTBEGIN
1070
    73
1070
     1
1070
    44
1040
1.0
1070
    74
1070
     0
1000
MTEXTEND
  0
MTEXT
  5
F7
330
CB
100
AcDbEntity
  8
Border (ANSI)
100
AcDbMText
 10
2.722276993858532
 20
0.2199999985169238
 30
0.0
 40
0.1200000014830762
 41
0.0
 71
     7
 72
     1
  1
2
  7
Text Style29
 73
     1
 44
1.0
1001
ACAD
1000
MTEXTBEGIN
1070
    73
1070
     1
1070
    44
1040
1.0
1070
    74
1070
     0
1000
MTEXTEND
  0
MTEXT
  5
F8
330
CB
100
AcDbEntity
  8
Border (ANSI)
100
AcDbMText
 10
0.2281865791448458
 20
2.064999999258461
 30
0.0
 40
0.1200000014830762
 41
0.0
 71
     7
 72
     1
  1
A
  7
Text Style29
 73
     1
 44
1.0
1001
ACAD
1000
MTEXTBEGIN
1070
    73
1070
     1
1070
    44
1040
1.0
1070
    74
1070
     0
1000
MTEXTEND
  0
MTEXT
  5
F9
330
CB
100
AcDbEntity
  8
Border (ANSI)
100
AcDbMText
 10
10.66818658062792
 20
2.064999999258461
 30
0.0
 40
0.1200000014830762
 41
0.0
 71
     7
 72
     1
  1
A
  7
Text Style29
 73
     1
 44
1.0
1001
ACAD
1000
MTEXTBEGIN
1070
    73
1070
     1
1070
    44
1040
1.0
1070
    74
1070
     0
1000
MTEXTEND
  0
MTEXT
  5
FA
330
CB
100
AcDbEntity
  8
Border (ANSI)
100
AcDbMText
 10
0.2554072225563169
 20
6.314999999258461
 30
0.0
 40
0.1200000014830762
 41
0.0
 71
     7
 72
     1
  1
B
  7
Text Style29
 73
     1
 44
1.0
1001
ACAD
1000
MTEXTBEGIN
1070
    73
1070
     1
1070
    44
1040
1.0
1070
    74
1070
     0
1000
MTEXTEND
  0
MTEXT
  5
FB
330
CB
100
AcDbEntity
  8
Border (ANSI)
100
AcDbMText
 10
10.69540722403939
 20
6.314999999258461
 30
0.0
 40
0.1200000014830762
 41
0.0
 71
     7
 72
     1
  1
B
  7
Text Style29
 73
     1
 44
1.821098923683166
1001
ACAD
1000
MTEXTBEGIN
1070
    73
1070
     1
1070
    44
1040
1.821098923683166
1070
    74
1070
     0
1000
MTEXTEND
  0
ENDBLK
  5
CD
330
CB
100
AcDbEntity
  8
0
100
AcDbBlockEnd
  0
BLOCK
  5
149
330
148
100
AcDbEntity
  8
0
100
AcDbBlockBegin
  2
Origin Indicator Symbol1
 70
     0
 10
0.0
 20
0.0
 30
0.0
  3
Origin Indicator Symbol1
  1

  0
CIRCLE
  5
14B
330
148
100
AcDbEntity
  8
Dimension (ANSI)
100
AcDbCircle
 10
4.148862587276338
 20
4.497801375087033
 30
0.0
 40
0.0984251968503937
  0
LINE
  5
14C
102
{ACAD_REACTORS
330
14E
102
}
330
148
100
AcDbEntity
  8
Dimension (ANSI)
100
AcDbLine
 10
4.148862587276338
 20
4.596226571937426
 30
0.0
 11
4.247287784126731
 21
4.497801375087033
 31
0.0
  0
ARC
  5
14D
102
{ACAD_REACTORS
330
14E
102
}
330
148
100
AcDbEntity
  8
Dimension (ANSI)
100
AcDbCircle
 10
4.148862587276338
 20
4.497801375087033
 30
0.0
 40
0.0984251968503937
100
AcDbArc
 50
0.0
 51
90.0
  0
HATCH
  5
14E
330
148
100
AcDbEntity
  8
Dimension (ANSI)
100
AcDbHatch
 10
0.0
 20
0.0
 30
0.0
210
0.0
220
0.0
230
1.0
  2
SOLID
 70
     1
 71
     1
 91
        1
 92
        0
 93
        2
 72
     1
 10
4.148862587276338
 20
4.596226571937426
 11
4.247287784126731
 21
4.497801375087033
 72
     2
 10
4.148862587276338
 20
4.497801375087033
 40
0.0984251968503937
 50
0.0
 51
90.0
 73
     1
 97
        2
330
14C
330
14D
 75
     0
 76
     1
 98
        1
 10
0.0
 20
0.0
  0
LINE
  5
14F
102
{ACAD_REACTORS
330
151
102
}
330
148
100
AcDbEntity
  8
Dimension (ANSI)
100
AcDbLine
 10
4.148862587276338
 20
4.399376178236639
 30
0.0
 11
4.050437390425944
 21
4.497801375087033
 31
0.0
  0
ARC
  5
150
102
{ACAD_REACTORS
330
151
102
}
330
148
100
AcDbEntity
  8
Dimension (ANSI)
100
AcDbCircle
 10
4.148862587276338
 20
4.497801375087033
 30
0.0
 40
0.0984251968503937
100
AcDbArc
 50
180.0
 51
270.0
  0
HATCH
  5
151
330
148
100
AcDbEntity
  8
Dimension (ANSI)
100
AcDbHatch
 10
0.0
 20
0.0
 30
0.0
210
0.0
220
0.0
230
1.0
  2
SOLID
 70
     1
 71
     1
 91
        1
 92
        0
 93
        2
 72
     1
 10
4.148862587276338
 20
4.399376178236639
 11
4.050437390425944
 21
4.497801375087033
 72
     2
 10
4.148862587276338
 20
4.497801375087033
 40
0.0984251968503937
 50
180.0
 51
270.0
 73
     1
 97
        2
330
14F
330
150
 75
     0
 76
     1
 98
        1
 10
0.0
 20
0.0
  0
POLYLINE
  5
152
330
148
100
AcDbEntity
  8
Dimension (ANSI)
100
AcDb2dPolyline
 66
     1
 10
0.0
 20
0.0
 30
0.0
 70
   128
  0
VERTEX
  5
153
330
152
100
AcDbEntity
  8
Dimension (ANSI)
100
AcDbVertex
100
AcDb2dVertex
 10
4.148862493319773
 20
4.4978014127476
 30
0.0
  0
VERTEX
  5
154
330
152
100
AcDbEntity
  8
Dimension (ANSI)
100
AcDbVertex
100
AcDb2dVertex
 10
4.247287690170167
 20
4.4978014127476
 30
0.0
  0
VERTEX
  5
156
330
152
100
AcDbEntity
  8
Dimension (ANSI)
100
AcDbVertex
100
AcDb2dVertex
 10
4.148862493319773
 20
4.596226609597994
 30
0.0
  0
VERTEX
  5
157
330
152
100
AcDbEntity
  8
Dimension (ANSI)
100
AcDbVertex
100
AcDb2dVertex
 10
4.148862493319773
 20
4.4978014127476
 30
0.0
  0
SEQEND
  5
155
330
152
100
AcDbEntity
  8
Dimension (ANSI)
  0
SOLID
  5
158
330
148
100
AcDbEntity
  8
Dimension (ANSI)
100
AcDbTrace
 10
4.148862493319773
 20
4.4978014127476
 30
0.0
 11
4.247287690170167
 21
4.4978014127476
 31
0.0
 12
4.148862493319773
 22
4.596226609597994
 32
0.0
 13
4.148862493319773
 23
4.4978014127476
 33
0.0
  0
POLYLINE
  5
159
330
148
100
AcDbEntity
  8
Dimension (ANSI)
100
AcDb2dPolyline
 66
     1
 10
0.0
 20
0.0
 30
0.0
 70
   128
  0
VERTEX
  5
15A
330
159
100
AcDbEntity
  8
Dimension (ANSI)
100
AcDbVertex
100
AcDb2dVertex
 10
4.148862493319773
 20
4.4978014127476
 30
0.0
  0
VERTEX
  5
15B
330
159
100
AcDbEntity
  8
Dimension (ANSI)
100
AcDbVertex
100
AcDb2dVertex
 10
4.148862493319773
 20
4.596226609597994
 30
0.0
  0
VERTEX
  5
15D
330
159
100
AcDbEntity
  8
Dimension (ANSI)
100
AcDbVertex
100
AcDb2dVertex
 10
4.148862493319773
 20
4.399376215897206
 30
0.0
  0
VERTEX
  5
15E
330
159
100
AcDbEntity
  8
Dimension (ANSI)
100
AcDbVertex
100
AcDb2dVertex
 10
4.148862493319773
 20
4.4978014127476
 30
0.0
  0
SEQEND
  5
15C
330
159
100
AcDbEntity
  8
Dimension (ANSI)
  0
SOLID
  5
15F
330
148
100
AcDbEntity
  8
Dimension (ANSI)
100
AcDbTrace
 10
4.148862493319773
 20
4.4978014127476
 30
0.0
 11
4.148862493319773
 21
4.596226609597994
 31
0.0
 12
4.148862493319773
 22
4.399376215897206
 32
0.0
 13
4.148862493319773
 23
4.4978014127476
 33
0.0
  0
POLYLINE
  5
160
330
148
100
AcDbEntity
  8
Dimension (ANSI)
100
AcDb2dPolyline
 66
     1
 10
0.0
 20
0.0
 30
0.0
 70
   128
  0
VERTEX
  5
161
330
160
100
AcDbEntity
  8
Dimension (ANSI)
100
AcDbVertex
100
AcDb2dVertex
 10
4.148862493319773
 20
4.4978014127476
 30
0.0
  0
VERTEX
  5
162
330
160
100
AcDbEntity
  8
Dimension (ANSI)
100
AcDbVertex
100
AcDb2dVertex
 10
4.148862493319773
 20
4.399376215897206
 30
0.0
  0
VERTEX
  5
164
330
160
100
AcDbEntity
  8
Dimension (ANSI)
100
AcDbVertex
100
AcDb2dVertex
 10
4.05043729646938
 20
4.4978014127476
 30
0.0
  0
VERTEX
  5
165
330
160
100
AcDbEntity
  8
Dimension (ANSI)
100
AcDbVertex
100
AcDb2dVertex
 10
4.148862493319773
 20
4.4978014127476
 30
0.0
  0
SEQEND
  5
163
330
160
100
AcDbEntity
  8
Dimension (ANSI)
  0
SOLID
  5
166
330
148
100
AcDbEntity
  8
Dimension (ANSI)
100
AcDbTrace
 10
4.148862493319773
 20
4.4978014127476
 30
0.0
 11
4.148862493319773
 21
4.399376215897206
 31
0.0
 12
4.05043729646938
 22
4.4978014127476
 32
0.0
 13
4.148862493319773
 23
4.4978014127476
 33
0.0
  0
POLYLINE
  5
167
330
148
100
AcDbEntity
  8
Dimension (ANSI)
100
AcDb2dPolyline
 66
     1
 10
0.0
 20
0.0
 30
0.0
 70
   128
  0
VERTEX
  5
168
330
167
100
AcDbEntity
  8
Dimension (ANSI)
100
AcDbVertex
100
AcDb2dVertex
 10
4.148862493319773
 20
4.4978014127476
 30
0.0
  0
VERTEX
  5
169
330
167
100
AcDbEntity
  8
Dimension (ANSI)
100
AcDbVertex
100
AcDb2dVertex
 10
4.05043729646938
 20
4.4978014127476
 30
0.0
  0
VERTEX
  5
16B
330
167
100
AcDbEntity
  8
Dimension (ANSI)
100
AcDbVertex
100
AcDb2dVertex
 10
4.148862493319773
 20
4.4978014127476
 30
0.0
  0
VERTEX
  5
16C
330
167
100
AcDbEntity
  8
Dimension (ANSI)
100
AcDbVertex
100
AcDb2dVertex
 10
4.148862493319773
 20
4.4978014127476
 30
0.0
  0
SEQEND
  5
16A
330
167
100
AcDbEntity
  8
Dimension (ANSI)
  0
SOLID
  5
16D
330
148
100
AcDbEntity
  8
Dimension (ANSI)
100
AcDbTrace
 10
4.148862493319773
 20
4.4978014127476
 30
0.0
 11
4.05043729646938
 21
4.4978014127476
 31
0.0
 12
4.148862493319773
 22
4.4978014127476
 32
0.0
 13
4.148862493319773
 23
4.4978014127476
 33
0.0
  0
ENDBLK
  5
14A
330
148
100
AcDbEntity
  8
0
100
AcDbBlockEnd
  0
BLOCK
  5
19A
330
199
100
AcDbEntity
  8
0
100
AcDbBlockBegin
  2
Origin Indicator Symbol2
 70
     0
 10
0.0
 20
0.0
 30
0.0
  3
Origin Indicator Symbol2
  1

  0
CIRCLE
  5
19C
330
199
100
AcDbEntity
  8
Dimension (ANSI)
100
AcDbCircle
 10
4.150548896573991
 20
5.723528341950791
 30
0.0
 40
0.0984251968503937
  0
LINE
  5
19D
102
{ACAD_REACTORS
330
19F
102
}
330
199
100
AcDbEntity
  8
Dimension (ANSI)
100
AcDbLine
 10
4.150548896573991
 20
5.821953538801185
 30
0.0
 11
4.248974093424385
 21
5.723528341950791
 31
0.0
  0
ARC
  5
19E
102
{ACAD_REACTORS
330
19F
102
}
330
199
100
AcDbEntity
  8
Dimension (ANSI)
100
AcDbCircle
 10
4.150548896573991
 20
5.723528341950791
 30
0.0
 40
0.0984251968503937
100
AcDbArc
 50
0.0
 51
90.0
  0
HATCH
  5
19F
330
199
100
AcDbEntity
  8
Dimension (ANSI)
100
AcDbHatch
 10
0.0
 20
0.0
 30
0.0
210
0.0
220
0.0
230
1.0
  2
SOLID
 70
     1
 71
     1
 91
        1
 92
        0
 93
        2
 72
     1
 10
4.150548896573991
 20
5.821953538801185
 11
4.248974093424385
 21
5.723528341950792
 72
     2
 10
4.150548896573991
 20
5.723528341950791
 40
0.0984251968503937
 50
0.0
 51
90.0
 73
     1
 97
        2
330
19D
330
19E
 75
     0
 76
     1
 98
        1
 10
0.0
 20
0.0
  0
LINE
  5
1A0
102
{ACAD_REACTORS
330
1A2
102
}
330
199
100
AcDbEntity
  8
Dimension (ANSI)
100
AcDbLine
 10
4.150548896573991
 20
5.625103145100397
 30
0.0
 11
4.052123699723598
 21
5.723528341950791
 31
0.0
  0
ARC
  5
1A1
102
{ACAD_REACTORS
330
1A2
102
}
330
199
100
AcDbEntity
  8
Dimension (ANSI)
100
AcDbCircle
 10
4.150548896573991
 20
5.723528341950791
 30
0.0
 40
0.0984251968503937
100
AcDbArc
 50
180.0
 51
270.0
  0
HATCH
  5
1A2
330
199
100
AcDbEntity
  8
Dimension (ANSI)
100
AcDbHatch
 10
0.0
 20
0.0
 30
0.0
210
0.0
220
0.0
230
1.0
  2
SOLID
 70
     1
 71
     1
 91
        1
 92
        0
 93
        2
 72
     1
 10
4.150548896573991
 20
5.625103145100397
 11
4.052123699723598
 21
5.723528341950791
 72
     2
 10
4.150548896573991
 20
5.723528341950791
 40
0.0984251968503937
 50
180.0
 51
270.0
 73
     1
 97
        2
330
1A0
330
1A1
 75
     0
 76
     1
 98
        1
 10
0.0
 20
0.0
  0
POLYLINE
  5
1A3
330
199
100
AcDbEntity
  8
Dimension (ANSI)
100
AcDb2dPolyline
 66
     1
 10
0.0
 20
0.0
 30
0.0
 70
   128
  0
VERTEX
  5
1A4
330
1A3
100
AcDbEntity
  8
Dimension (ANSI)
100
AcDbVertex
100
AcDb2dVertex
 10
4.150549070102961
 20
5.723528223713551
 30
0.0
  0
VERTEX
  5
1A5
330
1A3
100
AcDbEntity
  8
Dimension (ANSI)
100
AcDbVertex
100
AcDb2dVertex
 10
4.248974266953355
 20
5.723528223713551
 30
0.0
  0
VERTEX
  5
1A7
330
1A3
100
AcDbEntity
  8
Dimension (ANSI)
100
AcDbVertex
100
AcDb2dVertex
 10
4.150549070102961
 20
5.821953420563945
 30
0.0
  0
VERTEX
  5
1A8
330
1A3
100
AcDbEntity
  8
Dimension (ANSI)
100
AcDbVertex
100
AcDb2dVertex
 10
4.150549070102961
 20
5.723528223713551
 30
0.0
  0
SEQEND
  5
1A6
330
1A3
100
AcDbEntity
  8
Dimension (ANSI)
  0
SOLID
  5
1A9
330
199
100
AcDbEntity
  8
Dimension (ANSI)
100
AcDbTrace
 10
4.150549070102961
 20
5.723528223713551
 30
0.0
 11
4.248974266953355
 21
5.723528223713551
 31
0.0
 12
4.150549070102961
 22
5.821953420563945
 32
0.0
 13
4.150549070102961
 23
5.723528223713551
 33
0.0
  0
POLYLINE
  5
1AA
330
199
100
AcDbEntity
  8
Dimension (ANSI)
100
AcDb2dPolyline
 66
     1
 10
0.0
 20
0.0
 30
0.0
 70
   128
  0
VERTEX
  5
1AB
330
1AA
100
AcDbEntity
  8
Dimension (ANSI)
100
AcDbVertex
100
AcDb2dVertex
 10
4.150549070102961
 20
5.723528223713551
 30
0.0
  0
VERTEX
  5
1AC
330
1AA
100
AcDbEntity
  8
Dimension (ANSI)
100
AcDbVertex
100
AcDb2dVertex
 10
4.150549070102961
 20
5.821953420563945
 30
0.0
  0
VERTEX
  5
1AE
330
1AA
100
AcDbEntity
  8
Dimension (ANSI)
100
AcDbVertex
100
AcDb2dVertex
 10
4.150549070102961
 20
5.625103026863158
 30
0.0
  0
VERTEX
  5
1AF
330
1AA
100
AcDbEntity
  8
Dimension (ANSI)
100
AcDbVertex
100
AcDb2dVertex
 10
4.150549070102961
 20
5.723528223713551
 30
0.0
  0
SEQEND
  5
1AD
330
1AA
100
AcDbEntity
  8
Dimension (ANSI)
  0
SOLID
  5
1B0
330
199
100
AcDbEntity
  8
Dimension (ANSI)
100
AcDbTrace
 10
4.150549070102961
 20
5.723528223713551
 30
0.0
 11
4.150549070102961
 21
5.821953420563945
 31
0.0
 12
4.150549070102961
 22
5.625103026863158
 32
0.0
 13
4.150549070102961
 23
5.723528223713551
 33
0.0
  0
POLYLINE
  5
1B1
330
199
100
AcDbEntity
  8
Dimension (ANSI)
100
AcDb2dPolyline
 66
     1
 10
0.0
 20
0.0
 30
0.0
 70
   128
  0
VERTEX
  5
1B2
330
1B1
100
AcDbEntity
  8
Dimension (ANSI)
100
AcDbVertex
100
AcDb2dVertex
 10
4.150549070102961
 20
5.723528223713551
 30
0.0
  0
VERTEX
  5
1B3
330
1B1
100
AcDbEntity
  8
Dimension (ANSI)
100
AcDbVertex
100
AcDb2dVertex
 10
4.150549070102961
 20
5.625103026863158
 30
0.0
  0
VERTEX
  5
1B5
330
1B1
100
AcDbEntity
  8
Dimension (ANSI)
100
AcDbVertex
100
AcDb2dVertex
 10
4.052123873252567
 20
5.723528223713551
 30
0.0
  0
VERTEX
  5
1B6
330
1B1
100
AcDbEntity
  8
Dimension (ANSI)
100
AcDbVertex
100
AcDb2dVertex
 10
4.150549070102961
 20
5.723528223713551
 30
0.0
  0
SEQEND
  5
1B4
330
1B1
100
AcDbEntity
  8
Dimension (ANSI)
  0
SOLID
  5
1B7
330
199
100
AcDbEntity
  8
Dimension (ANSI)
100
AcDbTrace
 10
4.150549070102961
 20
5.723528223713551
 30
0.0
 11
4.150549070102961
 21
5.625103026863158
 31
0.0
 12
4.052123873252567
 22
5.723528223713551
 32
0.0
 13
4.150549070102961
 23
5.723528223713551
 33
0.0
  0
POLYLINE
  5
1B8
330
199
100
AcDbEntity
  8
Dimension (ANSI)
100
AcDb2dPolyline
 66
     1
 10
0.0
 20
0.0
 30
0.0
 70
   128
  0
VERTEX
  5
1B9
330
1B8
100
AcDbEntity
  8
Dimension (ANSI)
100
AcDbVertex
100
AcDb2dVertex
 10
4.150549070102961
 20
5.723528223713551
 30
0.0
  0
VERTEX
  5
1BA
330
1B8
100
AcDbEntity
  8
Dimension (ANSI)
100
AcDbVertex
100
AcDb2dVertex
 10
4.052123873252567
 20
5.723528223713551
 30
0.0
  0
VERTEX
  5
1BC
330
1B8
100
AcDbEntity
  8
Dimension (ANSI)
100
AcDbVertex
100
AcDb2dVertex
 10
4.150549070102961
 20
5.723528223713551
 30
0.0
  0
VERTEX
  5
1BD
330
1B8
100
AcDbEntity
  8
Dimension (ANSI)
100
AcDbVertex
100
AcDb2dVertex
 10
4.150549070102961
 20
5.723528223713551
 30
0.0
  0
SEQEND
  5
1BB
330
1B8
100
AcDbEntity
  8
Dimension (ANSI)
  0
SOLID
  5
1BE
330
199
100
AcDbEntity
  8
Dimension (ANSI)
100
AcDbTrace
 10
4.150549070102961
 20
5.723528223713551
 30
0.0
 11
4.052123873252567
 21
5.723528223713551
 31
0.0
 12
4.150549070102961
 22
5.723528223713551
 32
0.0
 13
4.150549070102961
 23
5.723528223713551
 33
0.0
  0
ENDBLK
  5
19B
330
199
100
AcDbEntity
  8
0
100
AcDbBlockEnd
  0
BLOCK
  5
1C2
330
1C1
100
AcDbEntity
  8
0
100
AcDbBlockBegin
  2
Hole Table1
 70
     0
 10
0.0
 20
0.0
 30
0.0
  3
Hole Table1
  1

  0
MTEXT
  5
1C4
330
1C1
100
AcDbEntity
  8
Symbol (ANSI)
100
AcDbMText
 10
7.709545592991694
 20
7.482017462329171
 30
0.0
 40
0.1200000014830762
 41
0.0
 71
     7
 72
     1
  1
Hole Table
  7
Text Style29
 73
     1
 44
1.0
1001
ACAD
1000
MTEXTBEGIN
1070
    73
1070
     1
1070
    44
1040
1.0
1070
    74
1070
     0
1000
MTEXTEND
  0
LINE
  5
1C5
330
1C1
100
AcDbEntity
  8
Symbol (ANSI)
100
AcDbLine
 10
5.878554490347496
 20
7.450916502686389
 30
0.0
 11
6.484676450054662
 21
7.450916502686389
 31
0.0
  0
LINE
  5
1C6
330
1C1
100
AcDbEntity
  8
Symbol (ANSI)
100
AcDbLine
 10
6.484676450054662
 20
7.450916502686389
 30
0.0
 11
6.484676450054662
 21
7.260837761045833
 31
0.0
  0
LINE
  5
1C7
330
1C1
100
AcDbEntity
  8
Symbol (ANSI)
100
AcDbLine
 10
5.878554490347496
 20
7.260837761045833
 30
0.0
 11
6.484676450054662
 21
7.260837761045833
 31
0.0
  0
MTEXT
  5
1C8
330
1C1
100
AcDbEntity
  8
Symbol (ANSI)
100
AcDbMText
 10
6.004202597023062
 20
7.293348769300133
 30
0.0
 40
0.1200000014830762
 41
0.0
 71
     7
 72
     1
  1
HOLE
  7
Text Style29
 73
     1
 44
1.0
1001
ACAD
1000
MTEXTBEGIN
1070
    73
1070
     1
1070
    44
1040
1.0
1070
    74
1070
     0
1000
MTEXTEND
  0
LINE
  5
1C9
330
1C1
100
AcDbEntity
  8
Symbol (ANSI)
100
AcDbLine
 10
6.484676450054662
 20
7.450916502686389
 30
0.0
 11
7.075227631157024
 21
7.450916502686389
 31
0.0
  0
LINE
  5
1CA
330
1C1
100
AcDbEntity
  8
Symbol (ANSI)
100
AcDbLine
 10
6.484676450054662
 20
7.450916502686389
 30
0.0
 11
6.484676450054662
 21
7.260837761045833
 31
0.0
  0
LINE
  5
1CB
330
1C1
100
AcDbEntity
  8
Symbol (ANSI)
100
AcDbLine
 10
7.075227631157024
 20
7.450916502686389
 30
0.0
 11
7.075227631157024
 21
7.260837761045833
 31
0.0
  0
LINE
  5
1CC
330
1C1
100
AcDbEntity
  8
Symbol (ANSI)
100
AcDbLine
 10
6.484676450054662
 20
7.260837761045833
 30
0.0
 11
7.075227631157024
 21
7.260837761045833
 31
0.0
  0
MTEXT
  5
1CD
330
1C1
100
AcDbEntity
  8
Symbol (ANSI)
100
AcDbMText
 10
6.583064311869686
 20
7.295877132327684
 30
0.0
 40
0.1200000014830762
 41
0.0
 71
     7
 72
     1
  1
XDIM
  7
Text Style29
 73
     1
 44
1.0
1001
ACAD
1000
MTEXTBEGIN
1070
    73
1070
     1
1070
    44
1040
1.0
1070
    74
1070
     0
1000
MTEXTEND
  0
LINE
  5
1CE
330
1C1
100
AcDbEntity
  8
Symbol (ANSI)
100
AcDbLine
 10
7.075227631157024
 20
7.450916502686389
 30
0.0
 11
7.665778812259386
 21
7.450916502686389
 31
0.0
  0
LINE
  5
1CF
330
1C1
100
AcDbEntity
  8
Symbol (ANSI)
100
AcDbLine
 10
7.075227631157024
 20
7.450916502686389
 30
0.0
 11
7.075227631157024
 21
7.260837761045833
 31
0.0
  0
LINE
  5
1D0
330
1C1
100
AcDbEntity
  8
Symbol (ANSI)
100
AcDbLine
 10
7.665778812259386
 20
7.450916502686389
 30
0.0
 11
7.665778812259386
 21
7.260837761045833
 31
0.0
  0
LINE
  5
1D1
330
1C1
100
AcDbEntity
  8
Symbol (ANSI)
100
AcDbLine
 10
7.075227631157024
 20
7.260837761045833
 30
0.0
 11
7.665778812259386
 21
7.260837761045833
 31
0.0
  0
MTEXT
  5
1D2
330
1C1
100
AcDbEntity
  8
Symbol (ANSI)
100
AcDbMText
 10
7.170880062171979
 20
7.295877132327684
 30
0.0
 40
0.1200000014830762
 41
0.0
 71
     7
 72
     1
  1
YDIM
  7
Text Style29
 73
     1
 44
1.0
1001
ACAD
1000
MTEXTBEGIN
1070
    73
1070
     1
1070
    44
1040
1.0
1070
    74
1070
     0
1000
MTEXTEND
  0
LINE
  5
1D3
330
1C1
100
AcDbEntity
  8
Symbol (ANSI)
100
AcDbLine
 10
7.665778812259386
 20
7.450916502686389
 30
0.0
 11
10.26839323030842
 21
7.450916502686389
 31
0.0
  0
LINE
  5
1D4
330
1C1
100
AcDbEntity
  8
Symbol (ANSI)
100
AcDbLine
 10
7.665778812259386
 20
7.450916502686389
 30
0.0
 11
7.665778812259386
 21
7.260837761045833
 31
0.0
  0
LINE
  5
1D5
330
1C1
100
AcDbEntity
  8
Symbol (ANSI)
100
AcDbLine
 10
7.665778812259386
 20
7.260837761045833
 30
0.0
 11
10.26839323030842
 21
7.260837761045833
 31
0.0
  0
MTEXT
  5
1D6
330
1C1
100
AcDbEntity
  8
Symbol (ANSI)
100
AcDbMText
 10
8.473433266402654
 20
7.293348769300133
 30
0.0
 40
0.1200000014830762
 41
0.0
 71
     7
 72
     1
  1
DESCRIPTION
  7
Text Style29
 73
     1
 44
1.0
1001
ACAD
1000
MTEXTBEGIN
1070
    73
1070
     1
1070
    44
1040
1.0
1070
    74
1070
     0
1000
MTEXTEND
  0
LINE
  5
1D7
330
1C1
100
AcDbEntity
  8
Symbol (ANSI)
100
AcDbLine
 10
5.878554490347496
 20
7.260837761045833
 30
0.0
 11
6.484676450054662
 21
7.260837761045833
 31
0.0
  0
LINE
  5
1D8
330
1C1
100
AcDbEntity
  8
Symbol (ANSI)
100
AcDbLine
 10
6.484676450054662
 20
7.260837761045833
 30
0.0
 11
6.484676450054662
 21
6.979499709678316
 31
0.0
  0
LINE
  5
1D9
330
1C1
100
AcDbEntity
  8
Symbol (ANSI)
100
AcDbLine
 10
5.878554490347496
 20
6.979499709678316
 30
0.0
 11
6.484676450054662
 21
6.979499709678316
 31
0.0
  0
MTEXT
  5
1DA
330
1C1
100
AcDbEntity
  8
Symbol (ANSI)
100
AcDbMText
 10
6.085555697758433
 20
7.059974246359989
 30
0.0
 40
0.1200000014830762
 41
0.0
 71
     7
 72
     1
  1
A1
  7
Text Style29
 73
     1
 44
1.0
1001
ACAD
1000
MTEXTBEGIN
1070
    73
1070
     1
1070
    44
1040
1.0
1070
    74
1070
     0
1000
MTEXTEND
  0
LINE
  5
1DB
330
1C1
100
AcDbEntity
  8
Symbol (ANSI)
100
AcDbLine
 10
6.484676450054662
 20
7.260837761045833
 30
0.0
 11
7.075227631157024
 21
7.260837761045833
 31
0.0
  0
LINE
  5
1DC
330
1C1
100
AcDbEntity
  8
Symbol (ANSI)
100
AcDbLine
 10
6.484676450054662
 20
7.260837761045833
 30
0.0
 11
6.484676450054662
 21
6.979499709678316
 31
0.0
  0
LINE
  5
1DD
330
1C1
100
AcDbEntity
  8
Symbol (ANSI)
100
AcDbLine
 10
7.075227631157024
 20
7.260837761045833
 30
0.0
 11
7.075227631157024
 21
6.979499709678316
 31
0.0
  0
LINE
  5
1DE
330
1C1
100
AcDbEntity
  8
Symbol (ANSI)
100
AcDbLine
 10
6.484676450054662
 20
6.979499709678316
 30
0.0
 11
7.075227631157024
 21
6.979499709678316
 31
0.0
  0
MTEXT
  5
1DF
330
1C1
100
AcDbEntity
  8
Symbol (ANSI)
100
AcDbMText
 10
6.559329272992214
 20
7.057688995162011
 30
0.0
 40
0.1200000014830762
 41
0.0
 71
     7
 72
     1
  1
-0.467
  7
Text Style29
 73
     1
 44
1.0
1001
ACAD
1000
MTEXTBEGIN
1070
    73
1070
     1
1070
    44
1040
1.0
1070
    74
1070
     0
1000
MTEXTEND
  0
LINE
  5
1E0
330
1C1
100
AcDbEntity
  8
Symbol (ANSI)
100
AcDbLine
 10
7.075227631157024
 20
7.260837761045833
 30
0.0
 11
7.665778812259386
 21
7.260837761045833
 31
0.0
  0
LINE
  5
1E1
330
1C1
100
AcDbEntity
  8
Symbol (ANSI)
100
AcDbLine
 10
7.075227631157024
 20
7.260837761045833
 30
0.0
 11
7.075227631157024
 21
6.979499709678316
 31
0.0
  0
LINE
  5
1E2
330
1C1
100
AcDbEntity
  8
Symbol (ANSI)
100
AcDbLine
 10
7.665778812259386
 20
7.260837761045833
 30
0.0
 11
7.665778812259386
 21
6.979499709678316
 31
0.0
  0
LINE
  5
1E3
330
1C1
100
AcDbEntity
  8
Symbol (ANSI)
100
AcDbLine
 10
7.075227631157024
 20
6.979499709678316
 30
0.0
 11
7.665778812259386
 21
6.979499709678316
 31
0.0
  0
MTEXT
  5
1E4
330
1C1
100
AcDbEntity
  8
Symbol (ANSI)
100
AcDbMText
 10
7.17867841475141
 20
7.057688995162011
 30
0.0
 40
0.1200000014830762
 41
0.0
 71
     7
 72
     1
  1
0.099
  7
Text Style29
 73
     1
 44
1.0
1001
ACAD
1000
MTEXTBEGIN
1070
    73
1070
     1
1070
    44
1040
1.0
1070
    74
1070
     0
1000
MTEXTEND
  0
MTEXT
  5
1E5
330
1C1
100
AcDbEntity
  8
Symbol (ANSI)
100
AcDbMText
 10
8.238009122575787
 20
7.0624274219733
 30
0.0
 40
0.1200000014830762
 41
0.0
 71
     7
 72
     1
  1
DRILL 
  7
Text Style29
 73
     1
 44
1.0
1001
ACAD
1000
MTEXTBEGIN
1070
    73
1070
     1
1070
    44
1040
1.0
1070
    74
1070
     0
1000
MTEXTEND
  0
MTEXT
  5
1E7
330
1C1
100
AcDbEntity
  8
Symbol (ANSI)
100
AcDbMText
 10
8.71939270719154
 20
7.032311591519776
 30
0.0
 40
0.1200000014830762
 41
0.0
 71
     7
 72
     1
  1
n
  7
Text Style6
 73
     1
 44
1.0
1001
ACAD
1000
MTEXTBEGIN
1070
    73
1070
     1
1070
    44
1040
1.0
1070
    74
1070
     0
1000
MTEXTEND
  0
MTEXT
  5
1E9
330
1C1
100
AcDbEntity
  8
Symbol (ANSI)
100
AcDbMText
 10
8.853294764610213
 20
7.05970456948209
 30
0.0
 40
0.1200000014830762
 41
0.0
 71
     7
 72
     1
  1
0.089 THRU
  7
Text Style29
 73
     1
 44
1.0
1001
ACAD
1000
MTEXTBEGIN
1070
    73
1070
     1
1070
    44
1040
1.0
1070
    74
1070
     0
1000
MTEXTEND
  0
LINE
  5
1EA
330
1C1
100
AcDbEntity
  8
Symbol (ANSI)
100
AcDbLine
 10
5.878554490347496
 20
6.979499709678316
 30
0.0
 11
6.484676450054662
 21
6.979499709678316
 31
0.0
  0
LINE
  5
1EB
330
1C1
100
AcDbEntity
  8
Symbol (ANSI)
100
AcDbLine
 10
6.484676450054662
 20
6.979499709678316
 30
0.0
 11
6.484676450054662
 21
6.6981616583108
 31
0.0
  0
LINE
  5
1EC
330
1C1
100
AcDbEntity
  8
Symbol (ANSI)
100
AcDbLine
 10
5.878554490347496
 20
6.6981616583108
 30
0.0
 11
6.484676450054662
 21
6.6981616583108
 31
0.0
  0
MTEXT
  5
1ED
330
1C1
100
AcDbEntity
  8
Symbol (ANSI)
100
AcDbMText
 10
6.085555697758433
 20
6.777566502942356
 30
0.0
 40
0.1200000014830762
 41
0.0
 71
     7
 72
     1
  1
A2
  7
Text Style29
 73
     1
 44
1.0
1001
ACAD
1000
MTEXTBEGIN
1070
    73
1070
     1
1070
    44
1040
1.0
1070
    74
1070
     0
1000
MTEXTEND
  0
LINE
  5
1EE
330
1C1
100
AcDbEntity
  8
Symbol (ANSI)
100
AcDbLine
 10
6.484676450054662
 20
6.979499709678316
 30
0.0
 11
7.075227631157024
 21
6.979499709678316
 31
0.0
  0
LINE
  5
1EF
330
1C1
100
AcDbEntity
  8
Symbol (ANSI)
100
AcDbLine
 10
6.484676450054662
 20
6.979499709678316
 30
0.0
 11
6.484676450054662
 21
6.6981616583108
 31
0.0
  0
LINE
  5
1F0
330
1C1
100
AcDbEntity
  8
Symbol (ANSI)
100
AcDbLine
 10
7.075227631157024
 20
6.979499709678316
 30
0.0
 11
7.075227631157024
 21
6.6981616583108
 31
0.0
  0
LINE
  5
1F1
330
1C1
100
AcDbEntity
  8
Symbol (ANSI)
100
AcDbLine
 10
6.484676450054662
 20
6.6981616583108
 30
0.0
 11
7.075227631157024
 21
6.6981616583108
 31
0.0
  0
MTEXT
  5
1F2
330
1C1
100
AcDbEntity
  8
Symbol (ANSI)
100
AcDbMText
 10
6.559329272992214
 20
6.77630232142858
 30
0.0
 40
0.1200000014830762
 41
0.0
 71
     7
 72
     1
  1
-0.269
  7
Text Style29
 73
     1
 44
2.049326658248901
1001
ACAD
1000
MTEXTBEGIN
1070
    73
1070
     1
1070
    44
1040
2.049326658248901
1070
    74
1070
     0
1000
MTEXTEND
  0
LINE
  5
1F3
330
1C1
100
AcDbEntity
  8
Symbol (ANSI)
100
AcDbLine
 10
7.075227631157024
 20
6.979499709678316
 30
0.0
 11
7.665778812259386
 21
6.979499709678316
 31
0.0
  0
LINE
  5
1F4
330
1C1
100
AcDbEntity
  8
Symbol (ANSI)
100
AcDbLine
 10
7.075227631157024
 20
6.979499709678316
 30
0.0
 11
7.075227631157024
 21
6.6981616583108
 31
0.0
  0
LINE
  5
1F5
330
1C1
100
AcDbEntity
  8
Symbol (ANSI)
100
AcDbLine
 10
7.665778812259386
 20
6.979499709678316
 30
0.0
 11
7.665778812259386
 21
6.6981616583108
 31
0.0
  0
LINE
  5
1F6
330
1C1
100
AcDbEntity
  8
Symbol (ANSI)
100
AcDbLine
 10
7.075227631157024
 20
6.6981616583108
 30
0.0
 11
7.665778812259386
 21
6.6981616583108
 31
0.0
  0
MTEXT
  5
1F7
330
1C1
100
AcDbEntity
  8
Symbol (ANSI)
100
AcDbMText
 10
7.17867841475141
 20
6.776350943794494
 30
0.0
 40
0.1200000014830762
 41
0.0
 71
     7
 72
     1
  1
0.099
  7
Text Style29
 73
     1
 44
1.0
1001
ACAD
1000
MTEXTBEGIN
1070
    73
1070
     1
1070
    44
1040
1.0
1070
    74
1070
     0
1000
MTEXTEND
  0
LINE
  5
1F8
330
1C1
100
AcDbEntity
  8
Symbol (ANSI)
100
AcDbLine
 10
5.878554490347496
 20
6.6981616583108
 30
0.0
 11
6.484676450054662
 21
6.6981616583108
 31
0.0
  0
LINE
  5
1F9
330
1C1
100
AcDbEntity
  8
Symbol (ANSI)
100
AcDbLine
 10
6.484676450054662
 20
6.6981616583108
 30
0.0
 11
6.484676450054662
 21
6.416823606943284
 31
0.0
  0
LINE
  5
1FA
330
1C1
100
AcDbEntity
  8
Symbol (ANSI)
100
AcDbLine
 10
5.878554490347496
 20
6.416823606943284
 30
0.0
 11
6.484676450054662
 21
6.416823606943284
 31
0.0
  0
MTEXT
  5
1FB
330
1C1
100
AcDbEntity
  8
Symbol (ANSI)
100
AcDbMText
 10
6.111998383223608
 20
6.497298143624957
 30
0.0
 40
0.1200000014830762
 41
0.0
 71
     7
 72
     1
  1
B1
  7
Text Style29
 73
     1
 44
1.0
1001
ACAD
1000
MTEXTBEGIN
1070
    73
1070
     1
1070
    44
1040
1.0
1070
    74
1070
     0
1000
MTEXTEND
  0
LINE
  5
1FC
330
1C1
100
AcDbEntity
  8
Symbol (ANSI)
100
AcDbLine
 10
6.484676450054662
 20
6.6981616583108
 30
0.0
 11
7.075227631157024
 21
6.6981616583108
 31
0.0
  0
LINE
  5
1FD
330
1C1
100
AcDbEntity
  8
Symbol (ANSI)
100
AcDbLine
 10
6.484676450054662
 20
6.6981616583108
 30
0.0
 11
6.484676450054662
 21
6.416823606943284
 31
0.0
  0
LINE
  5
1FE
330
1C1
100
AcDbEntity
  8
Symbol (ANSI)
100
AcDbLine
 10
7.075227631157024
 20
6.6981616583108
 30
0.0
 11
7.075227631157024
 21
6.416823606943284
 31
0.0
  0
LINE
  5
1FF
330
1C1
100
AcDbEntity
  8
Symbol (ANSI)
100
AcDbLine
 10
6.484676450054662
 20
6.416823606943284
 30
0.0
 11
7.075227631157024
 21
6.416823606943284
 31
0.0
  0
MTEXT
  5
200
330
1C1
100
AcDbEntity
  8
Symbol (ANSI)
100
AcDbMText
 10
6.559329272992214
 20
6.495012892426978
 30
0.0
 40
0.1200000014830762
 41
0.0
 71
     7
 72
     1
  1
-0.715
  7
Text Style29
 73
     1
 44
1.0
1001
ACAD
1000
MTEXTBEGIN
1070
    73
1070
     1
1070
    44
1040
1.0
1070
    74
1070
     0
1000
MTEXTEND
  0
LINE
  5
201
330
1C1
100
AcDbEntity
  8
Symbol (ANSI)
100
AcDbLine
 10
7.075227631157024
 20
6.6981616583108
 30
0.0
 11
7.665778812259386
 21
6.6981616583108
 31
0.0
  0
LINE
  5
202
330
1C1
100
AcDbEntity
  8
Symbol (ANSI)
100
AcDbLine
 10
7.075227631157024
 20
6.6981616583108
 30
0.0
 11
7.075227631157024
 21
6.416823606943284
 31
0.0
  0
LINE
  5
203
330
1C1
100
AcDbEntity
  8
Symbol (ANSI)
100
AcDbLine
 10
7.665778812259386
 20
6.6981616583108
 30
0.0
 11
7.665778812259386
 21
6.416823606943284
 31
0.0
  0
LINE
  5
204
330
1C1
100
AcDbEntity
  8
Symbol (ANSI)
100
AcDbLine
 10
7.075227631157024
 20
6.416823606943284
 30
0.0
 11
7.665778812259386
 21
6.416823606943284
 31
0.0
  0
MTEXT
  5
205
330
1C1
100
AcDbEntity
  8
Symbol (ANSI)
100
AcDbMText
 10
7.17867841475141
 20
6.495012892426978
 30
0.0
 40
0.1200000014830762
 41
0.0
 71
     7
 72
     1
  1
0.099
  7
Text Style29
 73
     1
 44
1.0
1001
ACAD
1000
MTEXTBEGIN
1070
    73
1070
     1
1070
    44
1040
1.0
1070
    74
1070
     0
1000
MTEXTEND
  0
MTEXT
  5
206
330
1C1
100
AcDbEntity
  8
Symbol (ANSI)
100
AcDbMText
 10
8.26552234500736
 20
6.497754142646801
 30
0.0
 40
0.1200000014830762
 41
0.0
 71
     7
 72
     1
  1
TAP #2-56  
  7
Text Style29
 73
     1
 44
1.0
1001
ACAD
1000
MTEXTBEGIN
1070
    73
1070
     1
1070
    44
1040
1.0
1070
    74
1070
     0
1000
MTEXTEND
  0
MTEXT
  5
207
330
1C1
100
AcDbEntity
  8
Symbol (ANSI)
100
AcDbMText
 10
9.177242406872739
 20
6.492174397475327
 30
0.0
 40
0.1200000014830762
 41
0.0
 71
     7
 72
     1
  1
x
  7
Text Style6
 73
     1
 44
1.0
1001
ACAD
1000
MTEXTBEGIN
1070
    73
1070
     1
1070
    44
1040
1.0
1070
    74
1070
     0
1000
MTEXTEND
  0
MTEXT
  5
208
330
1C1
100
AcDbEntity
  8
Symbol (ANSI)
100
AcDbMText
 10
9.296788098937369
 20
6.497754142646801
 30
0.0
 40
0.1200000014830762
 41
0.0
 71
     7
 72
     1
  1
 0.26
  7
Text Style29
 73
     1
 44
1.0
1001
ACAD
1000
MTEXTBEGIN
1070
    73
1070
     1
1070
    44
1040
1.0
1070
    74
1070
     0
1000
MTEXTEND
  0
LINE
  5
209
330
1C1
100
AcDbEntity
  8
Symbol (ANSI)
100
AcDbLine
 10
7.665778812259386
 20
6.6981616583108
 30
0.0
 11
10.26839323030842
 21
6.6981616583108
 31
0.0
  0
LINE
  5
20A
330
1C1
100
AcDbEntity
  8
Symbol (ANSI)
100
AcDbLine
 10
7.665778812259386
 20
6.6981616583108
 30
0.0
 11
7.665778812259386
 21
6.416823606943284
 31
0.0
  0
LINE
  5
20B
330
1C1
100
AcDbEntity
  8
Symbol (ANSI)
100
AcDbLine
 10
10.26839323030842
 20
6.6981616583108
 30
0.0
 11
10.26839323030842
 21
6.416823606943284
 31
0.0
  0
LINE
  5
20C
330
1C1
100
AcDbEntity
  8
Symbol (ANSI)
100
AcDbLine
 10
5.878554490347496
 20
6.416823606943284
 30
0.0
 11
6.484676450054662
 21
6.416823606943284
 31
0.0
  0
LINE
  5
20D
330
1C1
100
AcDbEntity
  8
Symbol (ANSI)
100
AcDbLine
 10
6.484676450054662
 20
6.416823606943284
 30
0.0
 11
6.484676450054662
 21
6.135485555575768
 31
0.0
  0
LINE
  5
20E
330
1C1
100
AcDbEntity
  8
Symbol (ANSI)
100
AcDbLine
 10
5.878554490347496
 20
6.135485555575768
 30
0.0
 11
6.484676450054662
 21
6.135485555575768
 31
0.0
  0
MTEXT
  5
20F
330
1C1
100
AcDbEntity
  8
Symbol (ANSI)
100
AcDbMText
 10
6.111998383223608
 20
6.214890400207323
 30
0.0
 40
0.1200000014830762
 41
0.0
 71
     7
 72
     1
  1
B2
  7
Text Style29
 73
     1
 44
1.970031023025512
1001
ACAD
1000
MTEXTBEGIN
1070
    73
1070
     1
1070
    44
1040
1.970031023025512
1070
    74
1070
     0
1000
MTEXTEND
  0
LINE
  5
210
330
1C1
100
AcDbEntity
  8
Symbol (ANSI)
100
AcDbLine
 10
6.484676450054662
 20
6.416823606943284
 30
0.0
 11
7.075227631157024
 21
6.416823606943284
 31
0.0
  0
LINE
  5
211
330
1C1
100
AcDbEntity
  8
Symbol (ANSI)
100
AcDbLine
 10
6.484676450054662
 20
6.416823606943284
 30
0.0
 11
6.484676450054662
 21
6.135485555575768
 31
0.0
  0
LINE
  5
212
330
1C1
100
AcDbEntity
  8
Symbol (ANSI)
100
AcDbLine
 10
7.075227631157024
 20
6.416823606943284
 30
0.0
 11
7.075227631157024
 21
6.135485555575768
 31
0.0
  0
LINE
  5
213
330
1C1
100
AcDbEntity
  8
Symbol (ANSI)
100
AcDbLine
 10
6.484676450054662
 20
6.135485555575768
 30
0.0
 11
7.075227631157024
 21
6.135485555575768
 31
0.0
  0
MTEXT
  5
214
330
1C1
100
AcDbEntity
  8
Symbol (ANSI)
100
AcDbMText
 10
6.559329272992214
 20
6.213626218693548
 30
0.0
 40
0.1200000014830762
 41
0.0
 71
     7
 72
     1
  1
-0.269
  7
Text Style29
 73
     1
 44
1.0
1001
ACAD
1000
MTEXTBEGIN
1070
    73
1070
     1
1070
    44
1040
1.0
1070
    74
1070
     0
1000
MTEXTEND
  0
LINE
  5
215
330
1C1
100
AcDbEntity
  8
Symbol (ANSI)
100
AcDbLine
 10
7.075227631157024
 20
6.416823606943284
 30
0.0
 11
7.665778812259386
 21
6.416823606943284
 31
0.0
  0
LINE
  5
216
330
1C1
100
AcDbEntity
  8
Symbol (ANSI)
100
AcDbLine
 10
7.075227631157024
 20
6.416823606943284
 30
0.0
 11
7.075227631157024
 21
6.135485555575768
 31
0.0
  0
LINE
  5
217
330
1C1
100
AcDbEntity
  8
Symbol (ANSI)
100
AcDbLine
 10
7.665778812259386
 20
6.416823606943284
 30
0.0
 11
7.665778812259386
 21
6.135485555575768
 31
0.0
  0
LINE
  5
218
330
1C1
100
AcDbEntity
  8
Symbol (ANSI)
100
AcDbLine
 10
7.075227631157024
 20
6.135485555575768
 30
0.0
 11
7.665778812259386
 21
6.135485555575768
 31
0.0
  0
MTEXT
  5
219
330
1C1
100
AcDbEntity
  8
Symbol (ANSI)
100
AcDbMText
 10
7.17867841475141
 20
6.213626218693548
 30
0.0
 40
0.1200000014830762
 41
0.0
 71
     7
 72
     1
  1
0.340
  7
Text Style29
 73
     1
 44
1.0
1001
ACAD
1000
MTEXTBEGIN
1070
    73
1070
     1
1070
    44
1040
1.0
1070
    74
1070
     0
1000
MTEXTEND
  0
LINE
  5
21A
330
1C1
100
AcDbEntity
  8
Symbol (ANSI)
100
AcDbLine
 10
5.878554490347496
 20
6.135485555575768
 30
0.0
 11
6.484676450054662
 21
6.135485555575768
 31
0.0
  0
LINE
  5
21B
330
1C1
100
AcDbEntity
  8
Symbol (ANSI)
100
AcDbLine
 10
6.484676450054662
 20
6.135485555575768
 30
0.0
 11
6.484676450054662
 21
5.854147504208252
 31
0.0
  0
LINE
  5
21C
330
1C1
100
AcDbEntity
  8
Symbol (ANSI)
100
AcDbLine
 10
5.878554490347496
 20
5.854147504208252
 30
0.0
 11
6.484676450054662
 21
5.854147504208252
 31
0.0
  0
MTEXT
  5
21D
330
1C1
100
AcDbEntity
  8
Symbol (ANSI)
100
AcDbMText
 10
6.09761798828049
 20
5.932677146253348
 30
0.0
 40
0.1200000014830762
 41
0.0
 71
     7
 72
     1
  1
C1
  7
Text Style29
 73
     1
 44
1.0
1001
ACAD
1000
MTEXTBEGIN
1070
    73
1070
     1
1070
    44
1040
1.0
1070
    74
1070
     0
1000
MTEXTEND
  0
LINE
  5
21E
330
1C1
100
AcDbEntity
  8
Symbol (ANSI)
100
AcDbLine
 10
6.484676450054662
 20
6.135485555575768
 30
0.0
 11
7.075227631157024
 21
6.135485555575768
 31
0.0
  0
LINE
  5
21F
330
1C1
100
AcDbEntity
  8
Symbol (ANSI)
100
AcDbLine
 10
6.484676450054662
 20
6.135485555575768
 30
0.0
 11
6.484676450054662
 21
5.854147504208252
 31
0.0
  0
LINE
  5
220
330
1C1
100
AcDbEntity
  8
Symbol (ANSI)
100
AcDbLine
 10
7.075227631157024
 20
6.135485555575768
 30
0.0
 11
7.075227631157024
 21
5.854147504208252
 31
0.0
  0
LINE
  5
221
330
1C1
100
AcDbEntity
  8
Symbol (ANSI)
100
AcDbLine
 10
6.484676450054662
 20
5.854147504208252
 30
0.0
 11
7.075227631157024
 21
5.854147504208252
 31
0.0
  0
MTEXT
  5
222
330
1C1
100
AcDbEntity
  8
Symbol (ANSI)
100
AcDbMText
 10
6.514304956850289
 20
5.932093677862374
 30
0.0
 40
0.1200000014830762
 41
0.0
 71
     7
 72
     1
  1
-0.6851
  7
Text Style29
 73
     1
 44
1.0
1001
ACAD
1000
MTEXTBEGIN
1070
    73
1070
     1
1070
    44
1040
1.0
1070
    74
1070
     0
1000
MTEXTEND
  0
LINE
  5
223
330
1C1
100
AcDbEntity
  8
Symbol (ANSI)
100
AcDbLine
 10
7.075227631157024
 20
6.135485555575768
 30
0.0
 11
7.665778812259386
 21
6.135485555575768
 31
0.0
  0
LINE
  5
224
330
1C1
100
AcDbEntity
  8
Symbol (ANSI)
100
AcDbLine
 10
7.075227631157024
 20
6.135485555575768
 30
0.0
 11
7.075227631157024
 21
5.854147504208252
 31
0.0
  0
LINE
  5
225
330
1C1
100
AcDbEntity
  8
Symbol (ANSI)
100
AcDbLine
 10
7.665778812259386
 20
6.135485555575768
 30
0.0
 11
7.665778812259386
 21
5.854147504208252
 31
0.0
  0
LINE
  5
226
330
1C1
100
AcDbEntity
  8
Symbol (ANSI)
100
AcDbLine
 10
7.075227631157024
 20
5.854147504208252
 30
0.0
 11
7.665778812259386
 21
5.854147504208252
 31
0.0
  0
MTEXT
  5
227
330
1C1
100
AcDbEntity
  8
Symbol (ANSI)
100
AcDbMText
 10
7.133654098609486
 20
5.932288167326032
 30
0.0
 40
0.1200000014830762
 41
0.0
 71
     7
 72
     1
  1
0.2500
  7
Text Style29
 73
     1
 44
1.0
1001
ACAD
1000
MTEXTBEGIN
1070
    73
1070
     1
1070
    44
1040
1.0
1070
    74
1070
     0
1000
MTEXTEND
  0
MTEXT
  5
228
330
1C1
100
AcDbEntity
  8
Symbol (ANSI)
100
AcDbMText
 10
8.065794894942573
 20
5.937075216503235
 30
0.0
 40
0.1200000014830762
 41
0.0
 71
     7
 72
     1
  1
REAM 
  7
Text Style29
 73
     1
 44
1.0
1001
ACAD
1000
MTEXTBEGIN
1070
    73
1070
     1
1070
    44
1040
1.0
1070
    74
1070
     0
1000
MTEXTEND
  0
MTEXT
  5
229
330
1C1
100
AcDbEntity
  8
Symbol (ANSI)
100
AcDbMText
 10
8.528312999360631
 20
5.906959386049712
 30
0.0
 40
0.1200000014830762
 41
0.0
 71
     7
 72
     1
  1
n
  7
Text Style6
 73
     1
 44
1.0
1001
ACAD
1000
MTEXTBEGIN
1070
    73
1070
     1
1070
    44
1040
1.0
1070
    74
1070
     0
1000
MTEXTEND
  0
MTEXT
  5
22A
330
1C1
100
AcDbEntity
  8
Symbol (ANSI)
100
AcDbMText
 10
8.662215056779302
 20
5.934546853475684
 30
0.0
 40
0.1200000014830762
 41
0.0
 71
     7
 72
     1
  1
0.0945 
  7
Text Style29
 73
     1
 44
1.0
1001
ACAD
1000
MTEXTBEGIN
1070
    73
1070
     1
1070
    44
1040
1.0
1070
    74
1070
     0
1000
MTEXTEND
  0
MTEXT
  5
22B
330
1C1
100
AcDbEntity
  8
Symbol (ANSI)
100
AcDbMText
 10
9.221094441623625
 20
5.92896710830421
 30
0.0
 40
0.1200000014830762
 41
0.0
 71
     7
 72
     1
  1
x
  7
Text Style6
 73
     1
 44
1.0
1001
ACAD
1000
MTEXTBEGIN
1070
    73
1070
     1
1070
    44
1040
1.0
1070
    74
1070
     0
1000
MTEXTEND
  0
MTEXT
  5
22C
330
1C1
100
AcDbEntity
  8
Symbol (ANSI)
100
AcDbMText
 10
9.340640133688255
 20
5.934546853475684
 30
0.0
 40
0.1200000014830762
 41
0.0
 71
     7
 72
     1
  1
 0.23
  7
Text Style29
 73
     1
 44
1.0
1001
ACAD
1000
MTEXTBEGIN
1070
    73
1070
     1
1070
    44
1040
1.0
1070
    74
1070
     0
1000
MTEXTEND
  0
MTEXT
  5
22D
330
1C1
100
AcDbEntity
  8
Symbol (ANSI)
100
AcDbMText
 10
9.730187509870392
 20
5.987836966517917
 30
0.0
 40
0.1200000014830762
 41
0.0
 71
     7
 72
     1
  1
**
  7
Text Style29
 73
     1
 44
2.727564811706542
1001
ACAD
1000
MTEXTBEGIN
1070
    73
1070
     1
1070
    44
1040
2.727564811706542
1070
    74
1070
     0
1000
MTEXTEND
  0
LINE
  5
22E
330
1C1
100
AcDbEntity
  8
Symbol (ANSI)
100
AcDbLine
 10
7.665778812259386
 20
6.135485555575768
 30
0.0
 11
10.26839323030842
 21
6.135485555575768
 31
0.0
  0
LINE
  5
22F
330
1C1
100
AcDbEntity
  8
Symbol (ANSI)
100
AcDbLine
 10
7.665778812259386
 20
6.135485555575768
 30
0.0
 11
7.665778812259386
 21
5.854147504208252
 31
0.0
  0
LINE
  5
230
330
1C1
100
AcDbEntity
  8
Symbol (ANSI)
100
AcDbLine
 10
10.26839323030842
 20
6.135485555575768
 30
0.0
 11
10.26839323030842
 21
5.854147504208252
 31
0.0
  0
LINE
  5
231
330
1C1
100
AcDbEntity
  8
Symbol (ANSI)
100
AcDbLine
 10
5.878554490347496
 20
5.854147504208252
 30
0.0
 11
6.484676450054662
 21
5.854147504208252
 31
0.0
  0
LINE
  5
232
330
1C1
100
AcDbEntity
  8
Symbol (ANSI)
100
AcDbLine
 10
6.484676450054662
 20
5.854147504208252
 30
0.0
 11
6.484676450054662
 21
5.572809452840736
 31
0.0
  0
MTEXT
  5
233
330
1C1
100
AcDbEntity
  8
Symbol (ANSI)
100
AcDbMText
 10
6.09761798828049
 20
5.651144605422174
 30
0.0
 40
0.1200000014830762
 41
0.0
 71
     7
 72
     1
  1
C2
  7
Text Style29
 73
     1
 44
1.0
1001
ACAD
1000
MTEXTBEGIN
1070
    73
1070
     1
1070
    44
1040
1.0
1070
    74
1070
     0
1000
MTEXTEND
  0
LINE
  5
234
330
1C1
100
AcDbEntity
  8
Symbol (ANSI)
100
AcDbLine
 10
6.484676450054662
 20
5.854147504208252
 30
0.0
 11
7.075227631157024
 21
5.854147504208252
 31
0.0
  0
LINE
  5
235
330
1C1
100
AcDbEntity
  8
Symbol (ANSI)
100
AcDbLine
 10
6.484676450054662
 20
5.854147504208252
 30
0.0
 11
6.484676450054662
 21
5.572809452840736
 31
0.0
  0
LINE
  5
236
330
1C1
100
AcDbEntity
  8
Symbol (ANSI)
100
AcDbLine
 10
7.075227631157024
 20
5.854147504208252
 30
0.0
 11
7.075227631157024
 21
5.572809452840736
 31
0.0
  0
MTEXT
  5
237
330
1C1
100
AcDbEntity
  8
Symbol (ANSI)
100
AcDbMText
 10
6.514304956850289
 20
5.650950115958516
 30
0.0
 40
0.1200000014830762
 41
0.0
 71
     7
 72
     1
  1
-0.1231
  7
Text Style29
 73
     1
 44
1.0
1001
ACAD
1000
MTEXTBEGIN
1070
    73
1070
     1
1070
    44
1040
1.0
1070
    74
1070
     0
1000
MTEXTEND
  0
LINE
  5
238
330
1C1
100
AcDbEntity
  8
Symbol (ANSI)
100
AcDbLine
 10
7.075227631157024
 20
5.854147504208252
 30
0.0
 11
7.665778812259386
 21
5.854147504208252
 31
0.0
  0
LINE
  5
239
330
1C1
100
AcDbEntity
  8
Symbol (ANSI)
100
AcDbLine
 10
7.075227631157024
 20
5.854147504208252
 30
0.0
 11
7.075227631157024
 21
5.572809452840736
 31
0.0
  0
LINE
  5
23A
330
1C1
100
AcDbEntity
  8
Symbol (ANSI)
100
AcDbLine
 10
7.665778812259386
 20
5.854147504208252
 30
0.0
 11
7.665778812259386
 21
5.572809452840736
 31
0.0
  0
MTEXT
  5
23B
330
1C1
100
AcDbEntity
  8
Symbol (ANSI)
100
AcDbMText
 10
7.133654098609486
 20
5.650755626494858
 30
0.0
 40
0.1200000014830762
 41
0.0
 71
     7
 72
     1
  1
0.3680
  7
Text Style29
 73
     1
 44
1.0
1001
ACAD
1000
MTEXTBEGIN
1070
    73
1070
     1
1070
    44
1040
1.0
1070
    74
1070
     0
1000
MTEXTEND
  0
LINE
  5
23C
330
1C1
100
AcDbEntity
  8
Symbol (ANSI)
100
AcDbLine
 10
5.878554490347496
 20
5.572809452840736
 30
0.0
 11
5.878554490347496
 21
7.640995244326946
 31
0.0
  0
LINE
  5
23D
330
1C1
100
AcDbEntity
  8
Symbol (ANSI)
100
AcDbLine
 10
5.878554490347496
 20
7.640995244326946
 30
0.0
 11
10.26839323030842
 21
7.640995244326946
 31
0.0
  0
LINE
  5
23E
330
1C1
100
AcDbEntity
  8
Symbol (ANSI)
100
AcDbLine
 10
10.26839323030842
 20
7.640995244326946
 30
0.0
 11
10.26839323030842
 21
5.572809452840736
 31
0.0
  0
LINE
  5
23F
330
1C1
100
AcDbEntity
  8
Symbol (ANSI)
100
AcDbLine
 10
10.26839323030842
 20
5.572809452840736
 30
0.0
 11
5.878554490347496
 21
5.572809452840736
 31
0.0
  0
ENDBLK
  5
1C3
330
1C1
100
AcDbEntity
  8
0
100
AcDbBlockEnd
  0
BLOCK
  5
242
330
241
100
AcDbEntity
  8
0
100
AcDbBlockBegin
  2
Leader Text1
 70
     0
 10
0.0
 20
0.0
 30
0.0
  3
Leader Text1
  1

  0
LINE
  5
244
330
241
100
AcDbEntity
  8
Symbol (ANSI)
100
AcDbLine
 10
1.319422598443102
 20
6.024590615041046
 30
0.0
 11
1.290558051748709
 21
6.118688209692376
 31
0.0
  0
POLYLINE
  5
245
330
241
100
AcDbEntity
  8
Symbol (ANSI)
100
AcDb2dPolyline
 66
     1
 10
0.0
 20
0.0
 30
0.0
 70
   128
  0
VERTEX
  5
246
330
245
100
AcDbEntity
  8
Symbol (ANSI)
100
AcDbVertex
100
AcDb2dVertex
 10
1.338242076513335
 20
6.030363548459029
 30
0.0
  0
VERTEX
  5
247
330
245
100
AcDbEntity
  8
Symbol (ANSI)
100
AcDbVertex
100
AcDb2dVertex
 10
1.290558079096275
 20
6.118688057726761
 30
0.0
  0
VERTEX
  5
249
330
245
100
AcDbEntity
  8
Symbol (ANSI)
100
AcDbVertex
100
AcDb2dVertex
 10
1.300603104388619
 20
6.018817706370916
 30
0.0
  0
VERTEX
  5
24A
330
245
100
AcDbEntity
  8
Symbol (ANSI)
100
AcDbVertex
100
AcDb2dVertex
 10
1.338242076513335
 20
6.030363548459029
 30
0.0
  0
SEQEND
  5
248
330
245
100
AcDbEntity
  8
Symbol (ANSI)
  0
SOLID
  5
24B
330
241
100
AcDbEntity
  8
Symbol (ANSI)
100
AcDbTrace
 10
1.338242076513335
 20
6.030363548459029
 30
0.0
 11
1.290558079096275
 21
6.118688057726761
 31
0.0
 12
1.300603104388619
 22
6.018817706370916
 32
0.0
 13
1.338242076513335
 23
6.030363548459029
 33
0.0
  0
LINE
  5
24C
330
241
100
AcDbEntity
  8
Symbol (ANSI)
100
AcDbLine
 10
1.338242117373367
 20
6.030363524379924
 30
0.0
 11
1.290558051748709
 21
6.118688209692376
 31
0.0
  0
LINE
  5
24D
330
241
100
AcDbEntity
  8
Symbol (ANSI)
100
AcDbLine
 10
1.290558051748709
 20
6.118688209692376
 30
0.0
 11
1.300603079512835
 21
6.018817705702168
 31
0.0
  0
LINE
  5
24E
330
241
100
AcDbEntity
  8
Symbol (ANSI)
100
AcDbLine
 10
1.300603079512835
 20
6.018817705702168
 30
0.0
 11
1.338242117373367
 21
6.030363524379924
 31
0.0
  0
LINE
  5
24F
330
241
100
AcDbEntity
  8
Symbol (ANSI)
100
AcDbLine
 10
1.319422598443102
 20
6.024590615041046
 30
0.0
 11
1.47452619419211
 21
5.518957339858196
 31
0.0
  0
LINE
  5
250
330
241
100
AcDbEntity
  8
Symbol (ANSI)
100
AcDbLine
 10
1.47452619419211
 20
5.518957339858196
 30
0.0
 11
1.572951391042504
 21
5.518957339858196
 31
0.0
  0
MTEXT
  5
251
330
241
100
AcDbEntity
  8
Symbol (ANSI)
100
AcDbMText
 10
1.596980980117307
 20
5.458762850856111
 30
0.0
 40
0.1200000014830762
 41
0.0
 71
     7
 72
     1
  1
B1
  7
Text Style29
 73
     1
 44
1.0
1001
ACAD
1000
MTEXTBEGIN
1070
    73
1070
     1
1070
    44
1040
1.0
1070
    74
1070
     0
1000
MTEXTEND
  0
ENDBLK
  5
243
330
241
100
AcDbEntity
  8
0
100
AcDbBlockEnd
  0
BLOCK
  5
254
330
253
100
AcDbEntity
  8
0
100
AcDbBlockBegin
  2
Leader Text2
 70
     0
 10
0.0
 20
0.0
 30
0.0
  3
Leader Text2
  1

  0
LINE
  5
256
330
253
100
AcDbEntity
  8
Symbol (ANSI)
100
AcDbLine
 10
3.01393636555139
 20
7.307998188709726
 30
0.0
 11
3.039466961722625
 21
7.212941847342198
 31
0.0
  0
POLYLINE
  5
257
330
253
100
AcDbEntity
  8
Symbol (ANSI)
100
AcDb2dPolyline
 66
     1
 10
0.0
 20
0.0
 30
0.0
 70
   128
  0
VERTEX
  5
258
330
257
100
AcDbEntity
  8
Symbol (ANSI)
100
AcDbVertex
100
AcDb2dVertex
 10
2.99492501837062
 20
7.302891738771452
 30
0.0
  0
VERTEX
  5
259
330
257
100
AcDbEntity
  8
Symbol (ANSI)
100
AcDbVertex
100
AcDb2dVertex
 10
3.039467053150567
 20
7.212941477617879
 30
0.0
  0
VERTEX
  5
25B
330
257
100
AcDbEntity
  8
Symbol (ANSI)
100
AcDbVertex
100
AcDb2dVertex
 10
3.032947712995874
 20
7.313104314128244
 30
0.0
  0
VERTEX
  5
25C
330
257
100
AcDbEntity
  8
Symbol (ANSI)
100
AcDbVertex
100
AcDb2dVertex
 10
2.99492501837062
 20
7.302891738771452
 30
0.0
  0
SEQEND
  5
25A
330
257
100
AcDbEntity
  8
Symbol (ANSI)
  0
SOLID
  5
25D
330
253
100
AcDbEntity
  8
Symbol (ANSI)
100
AcDbTrace
 10
2.99492501837062
 20
7.302891738771452
 30
0.0
 11
3.039467053150567
 21
7.212941477617879
 31
0.0
 12
3.032947712995874
 22
7.313104314128244
 32
0.0
 13
2.99492501837062
 23
7.302891738771452
 33
0.0
  0
LINE
  5
25E
330
253
100
AcDbEntity
  8
Symbol (ANSI)
100
AcDbLine
 10
2.994925097277884
 20
7.302892069475478
 30
0.0
 11
3.039466961722625
 21
7.212941847342198
 31
0.0
  0
LINE
  5
25F
330
253
100
AcDbEntity
  8
Symbol (ANSI)
100
AcDbLine
 10
3.039466961722625
 20
7.212941847342198
 30
0.0
 11
3.032947633824895
 21
7.313104307943972
 31
0.0
  0
LINE
  5
260
330
253
100
AcDbEntity
  8
Symbol (ANSI)
100
AcDbLine
 10
3.032947633824895
 20
7.313104307943972
 30
0.0
 11
2.994925097277884
 21
7.302892069475478
 31
0.0
  0
LINE
  5
261
330
253
100
AcDbEntity
  8
Symbol (ANSI)
100
AcDbLine
 10
3.01393636555139
 20
7.307998188709726
 30
0.0
 11
2.923771259299811
 21
7.643703828398073
 31
0.0
  0
LINE
  5
262
330
253
100
AcDbEntity
  8
Symbol (ANSI)
100
AcDbLine
 10
2.923771259299811
 20
7.643703828398073
 30
0.0
 11
2.616427590296134
 21
7.643703828398073
 31
0.0
  0
MTEXT
  5
263
330
253
100
AcDbEntity
  8
Symbol (ANSI)
100
AcDbMText
 10
2.453163827266389
 20
7.582439647345871
 30
0.0
 40
0.1200000014830762
 41
0.0
 71
     7
 72
     1
  1
B2
  7
Text Style29
 73
     1
 44
1.0
1001
ACAD
1000
MTEXTBEGIN
1070
    73
1070
     1
1070
    44
1040
1.0
1070
    74
1070
     0
1000
MTEXTEND
  0
ENDBLK
  5
255
330
253
100
AcDbEntity
  8
0
100
AcDbBlockEnd
  0
BLOCK
  5
266
330
265
100
AcDbEntity
  8
0
100
AcDbBlockBegin
  2
Leader Text3
 70
     0
 10
0.0
 20
0.0
 30
0.0
  3
Leader Text3
  1

  0
LINE
  5
268
330
265
100
AcDbEntity
  8
Symbol (ANSI)
100
AcDbLine
 10
1.533125270822575
 20
6.982284891449278
 30
0.0
 11
1.490920680485339
 21
6.893367559452052
 31
0.0
  0
POLYLINE
  5
269
330
265
100
AcDbEntity
  8
Symbol (ANSI)
100
AcDb2dPolyline
 66
     1
 10
0.0
 20
0.0
 30
0.0
 70
   128
  0
VERTEX
  5
26A
330
269
100
AcDbEntity
  8
Symbol (ANSI)
100
AcDbVertex
100
AcDb2dVertex
 10
1.515341837575116
 20
6.990725599874661
 30
0.0
  0
VERTEX
  5
26B
330
269
100
AcDbEntity
  8
Symbol (ANSI)
100
AcDbVertex
100
AcDb2dVertex
 10
1.490920641290859
 20
6.89336746696412
 30
0.0
  0
VERTEX
  5
26D
330
269
100
AcDbEntity
  8
Symbol (ANSI)
100
AcDbVertex
100
AcDb2dVertex
 10
1.550908726970041
 20
6.973844062624952
 30
0.0
  0
VERTEX
  5
26E
330
269
100
AcDbEntity
  8
Symbol (ANSI)
100
AcDbVertex
100
AcDb2dVertex
 10
1.515341837575116
 20
6.990725599874661
 30
0.0
  0
SEQEND
  5
26C
330
269
100
AcDbEntity
  8
Symbol (ANSI)
  0
SOLID
  5
26F
330
265
100
AcDbEntity
  8
Symbol (ANSI)
100
AcDbTrace
 10
1.515341837575116
 20
6.990725599874661
 30
0.0
 11
1.490920641290859
 21
6.89336746696412
 31
0.0
 12
1.550908726970041
 22
6.973844062624952
 32
0.0
 13
1.515341837575116
 23
6.990725599874661
 33
0.0
  0
LINE
  5
270
330
265
100
AcDbEntity
  8
Symbol (ANSI)
100
AcDbLine
 10
1.51534180442313
 20
6.990725809516725
 30
0.0
 11
1.490920680485339
 21
6.893367559452052
 31
0.0
  0
LINE
  5
271
330
265
100
AcDbEntity
  8
Symbol (ANSI)
100
AcDbLine
 10
1.490920680485339
 20
6.893367559452052
 30
0.0
 11
1.55090873722202
 21
6.973843973381831
 31
0.0
  0
LINE
  5
272
330
265
100
AcDbEntity
  8
Symbol (ANSI)
100
AcDbLine
 10
1.55090873722202
 20
6.973843973381831
 30
0.0
 11
1.51534180442313
 21
6.990725809516725
 31
0.0
  0
LINE
  5
273
330
265
100
AcDbEntity
  8
Symbol (ANSI)
100
AcDbLine
 10
1.533125270822575
 20
6.982284891449278
 30
0.0
 11
1.709123343139856
 21
7.353080553770884
 31
0.0
  0
LINE
  5
274
330
265
100
AcDbEntity
  8
Symbol (ANSI)
100
AcDbLine
 10
1.709123343139856
 20
7.353080553770884
 30
0.0
 11
1.807548539990249
 21
7.353080553770884
 31
0.0
  0
MTEXT
  5
275
330
265
100
AcDbEntity
  8
Symbol (ANSI)
100
AcDbMText
 10
1.818121559183163
 20
7.290941170132222
 30
0.0
 40
0.1200000014830762
 41
0.0
 71
     7
 72
     1
  1
C1
  7
Text Style29
 73
     1
 44
1.0
1001
ACAD
1000
MTEXTBEGIN
1070
    73
1070
     1
1070
    44
1040
1.0
1070
    74
1070
     0
1000
MTEXTEND
  0
ENDBLK
  5
267
330
265
100
AcDbEntity
  8
0
100
AcDbBlockEnd
  0
BLOCK
  5
278
330
277
100
AcDbEntity
  8
0
100
AcDbBlockBegin
  2
Leader Text4
 70
     0
 10
0.0
 20
0.0
 30
0.0
  3
Leader Text4
  1

  0
LINE
  5
27A
330
277
100
AcDbEntity
  8
Symbol (ANSI)
100
AcDbLine
 10
3.821881011281922
 20
6.9604477381953
 30
0.0
 11
3.765650503973556
 21
7.041229230029027
 31
0.0
  0
POLYLINE
  5
27B
330
277
100
AcDbEntity
  8
Symbol (ANSI)
100
AcDb2dPolyline
 66
     1
 10
0.0
 20
0.0
 30
0.0
 70
   128
  0
VERTEX
  5
27C
330
27B
100
AcDbEntity
  8
Symbol (ANSI)
100
AcDbVertex
100
AcDb2dVertex
 10
3.83803713040089
 20
6.971694165327416
 30
0.0
  0
VERTEX
  5
27D
330
27B
100
AcDbEntity
  8
Symbol (ANSI)
100
AcDbVertex
100
AcDb2dVertex
 10
3.76565062154935
 20
7.041229037787969
 30
0.0
  0
VERTEX
  5
27F
330
27B
100
AcDbEntity
  8
Symbol (ANSI)
100
AcDbVertex
100
AcDb2dVertex
 10
3.805724842341865
 20
6.949201719028742
 30
0.0
  0
VERTEX
  5
280
330
27B
100
AcDbEntity
  8
Symbol (ANSI)
100
AcDbVertex
100
AcDb2dVertex
 10
3.83803713040089
 20
6.971694165327416
 30
0.0
  0
SEQEND
  5
27E
330
27B
100
AcDbEntity
  8
Symbol (ANSI)
  0
SOLID
  5
281
330
277
100
AcDbEntity
  8
Symbol (ANSI)
100
AcDbTrace
 10
3.83803713040089
 20
6.971694165327416
 30
0.0
 11
3.76565062154935
 21
7.041229037787969
 31
0.0
 12
3.805724842341865
 22
6.949201719028742
 32
0.0
 13
3.83803713040089
 23
6.971694165327416
 33
0.0
  0
LINE
  5
282
330
277
100
AcDbEntity
  8
Symbol (ANSI)
100
AcDbLine
 10
3.838037309648668
 20
6.971693839656974
 30
0.0
 11
3.765650503973556
 21
7.041229230029027
 31
0.0
  0
LINE
  5
283
330
277
100
AcDbEntity
  8
Symbol (ANSI)
100
AcDbLine
 10
3.765650503973556
 20
7.041229230029027
 30
0.0
 11
3.805724712915177
 21
6.949201636733627
 31
0.0
  0
LINE
  5
284
330
277
100
AcDbEntity
  8
Symbol (ANSI)
100
AcDbLine
 10
3.805724712915177
 20
6.949201636733627
 30
0.0
 11
3.838037309648668
 21
6.971693839656974
 31
0.0
  0
LINE
  5
285
330
277
100
AcDbEntity
  8
Symbol (ANSI)
100
AcDbLine
 10
3.821881011281922
 20
6.9604477381953
 30
0.0
 11
3.927132751373076
 21
6.809241693831657
 31
0.0
  0
LINE
  5
286
330
277
100
AcDbEntity
  8
Symbol (ANSI)
100
AcDbLine
 10
3.927132751373076
 20
6.809241693831657
 30
0.0
 11
4.02555794822347
 21
6.809241693831657
 31
0.0
  0
MTEXT
  5
287
330
277
100
AcDbEntity
  8
Symbol (ANSI)
100
AcDbMText
 10
4.036130967416384
 20
6.746907820729337
 30
0.0
 40
0.1200000014830762
 41
0.0
 71
     7
 72
     1
  1
C2
  7
Text Style29
 73
     1
 44
1.0
1001
ACAD
1000
MTEXTBEGIN
1070
    73
1070
     1
1070
    44
1040
1.0
1070
    74
1070
     0
1000
MTEXTEND
  0
ENDBLK
  5
279
330
277
100
AcDbEntity
  8
0
100
AcDbBlockEnd
  0
BLOCK
  5
28A
330
289
100
AcDbEntity
  8
0
100
AcDbBlockBegin
  2
Leader Text5
 70
     0
 10
0.0
 20
0.0
 30
0.0
  3
Leader Text5
  1

  0
LINE
  5
28C
330
289
100
AcDbEntity
  8
Symbol (ANSI)
100
AcDbLine
 10
2.35334711382685
 20
5.852378289896257
 30
0.0
 11
2.328037631810649
 21
5.947493743399411
 31
0.0
  0
POLYLINE
  5
28D
330
289
100
AcDbEntity
  8
Symbol (ANSI)
100
AcDb2dPolyline
 66
     1
 10
0.0
 20
0.0
 30
0.0
 70
   128
  0
VERTEX
  5
28E
330
28D
100
AcDbEntity
  8
Symbol (ANSI)
100
AcDbVertex
100
AcDb2dVertex
 10
2.372370179243913
 20
5.857440242617148
 30
0.0
  0
VERTEX
  5
28F
330
28D
100
AcDbEntity
  8
Symbol (ANSI)
100
AcDbVertex
100
AcDb2dVertex
 10
2.328037652443712
 20
5.947493755911278
 30
0.0
  0
VERTEX
  5
291
330
28D
100
AcDbEntity
  8
Symbol (ANSI)
100
AcDbVertex
100
AcDb2dVertex
 10
2.334324018223079
 20
5.84731627637007
 30
0.0
  0
VERTEX
  5
292
330
28D
100
AcDbEntity
  8
Symbol (ANSI)
100
AcDbVertex
100
AcDb2dVertex
 10
2.372370179243913
 20
5.857440242617148
 30
0.0
  0
SEQEND
  5
290
330
28D
100
AcDbEntity
  8
Symbol (ANSI)
  0
SOLID
  5
293
330
289
100
AcDbEntity
  8
Symbol (ANSI)
100
AcDbTrace
 10
2.372370179243913
 20
5.857440242617148
 30
0.0
 11
2.328037652443712
 21
5.947493755911278
 31
0.0
 12
2.334324018223079
 22
5.84731627637007
 32
0.0
 13
2.372370179243913
 23
5.857440242617148
 33
0.0
  0
LINE
  5
294
330
289
100
AcDbEntity
  8
Symbol (ANSI)
100
AcDbLine
 10
2.37237020452748
 20
5.857440186299498
 30
0.0
 11
2.328037631810649
 21
5.947493743399411
 31
0.0
  0
LINE
  5
295
330
289
100
AcDbEntity
  8
Symbol (ANSI)
100
AcDbLine
 10
2.328037631810649
 20
5.947493743399411
 30
0.0
 11
2.334324023126219
 21
5.847316393493018
 31
0.0
  0
LINE
  5
296
330
289
100
AcDbEntity
  8
Symbol (ANSI)
100
AcDbLine
 10
2.334324023126219
 20
5.847316393493018
 30
0.0
 11
2.37237020452748
 21
5.857440186299498
 31
0.0
  0
LINE
  5
297
330
289
100
AcDbEntity
  8
Symbol (ANSI)
100
AcDbLine
 10
2.35334711382685
 20
5.852378289896257
 30
0.0
 11
2.444905310294144
 21
5.508293832800564
 31
0.0
  0
LINE
  5
298
330
289
100
AcDbEntity
  8
Symbol (ANSI)
100
AcDbLine
 10
2.444905310294144
 20
5.508293832800564
 30
0.0
 11
2.543330507144538
 21
5.508293832800564
 31
0.0
  0
MTEXT
  5
299
330
289
100
AcDbEntity
  8
Symbol (ANSI)
100
AcDbMText
 10
2.541792613443751
 20
5.44809934379848
 30
0.0
 40
0.1200000014830762
 41
0.0
 71
     7
 72
     1
  1
A1
  7
Text Style29
 73
     1
 44
1.0
1001
ACAD
1000
MTEXTBEGIN
1070
    73
1070
     1
1070
    44
1040
1.0
1070
    74
1070
     0
1000
MTEXTEND
  0
ENDBLK
  5
28B
330
289
100
AcDbEntity
  8
0
100
AcDbBlockEnd
  0
BLOCK
  5
29C
330
29B
100
AcDbEntity
  8
0
100
AcDbBlockBegin
  2
Leader Text6
 70
     0
 10
0.0
 20
0.0
 30
0.0
  3
Leader Text6
  1

  0
LINE
  5
29E
330
29B
100
AcDbEntity
  8
Symbol (ANSI)
100
AcDbLine
 10
3.170737800406324
 20
5.860478658254732
 30
0.0
 11
3.13637320922806
 21
5.952709858226268
 31
0.0
  0
POLYLINE
  5
29F
330
29B
100
AcDbEntity
  8
Symbol (ANSI)
100
AcDb2dPolyline
 66
     1
 10
0.0
 20
0.0
 30
0.0
 70
   128
  0
VERTEX
  5
2A0
330
29F
100
AcDbEntity
  8
Symbol (ANSI)
100
AcDbVertex
100
AcDb2dVertex
 10
3.189184158805786
 20
5.867351697185846
 30
0.0
  0
VERTEX
  5
2A1
330
29F
100
AcDbEntity
  8
Symbol (ANSI)
100
AcDbVertex
100
AcDb2dVertex
 10
3.136373129416638
 20
5.952709678589827
 30
0.0
  0
VERTEX
  5
2A3
330
29F
100
AcDbEntity
  8
Symbol (ANSI)
100
AcDbVertex
100
AcDb2dVertex
 10
3.152291605791707
 20
5.85360564584807
 30
0.0
  0
VERTEX
  5
2A4
330
29F
100
AcDbEntity
  8
Symbol (ANSI)
100
AcDbVertex
100
AcDb2dVertex
 10
3.189184158805786
 20
5.867351697185846
 30
0.0
  0
SEQEND
  5
2A2
330
29F
100
AcDbEntity
  8
Symbol (ANSI)
  0
SOLID
  5
2A5
330
29B
100
AcDbEntity
  8
Symbol (ANSI)
100
AcDbTrace
 10
3.189184158805786
 20
5.867351697185846
 30
0.0
 11
3.136373129416638
 21
5.952709678589827
 31
0.0
 12
3.152291605791707
 22
5.85360564584807
 32
0.0
 13
3.189184158805786
 23
5.867351697185846
 33
0.0
  0
LINE
  5
2A6
330
29B
100
AcDbEntity
  8
Symbol (ANSI)
100
AcDbLine
 10
3.189184040400632
 20
5.867351576490385
 30
0.0
 11
3.13637320922806
 21
5.952709858226268
 31
0.0
  0
LINE
  5
2A7
330
29B
100
AcDbEntity
  8
Symbol (ANSI)
100
AcDbLine
 10
3.13637320922806
 20
5.952709858226268
 30
0.0
 11
3.152291560412017
 21
5.853605740019079
 31
0.0
  0
LINE
  5
2A8
330
29B
100
AcDbEntity
  8
Symbol (ANSI)
100
AcDbLine
 10
3.152291560412017
 20
5.853605740019079
 30
0.0
 11
3.189184040400632
 21
5.867351576490385
 31
0.0
  0
LINE
  5
2A9
330
29B
100
AcDbEntity
  8
Symbol (ANSI)
100
AcDbLine
 10
3.170737800406324
 20
5.860478658254732
 30
0.0
 11
3.297985851922307
 21
5.518957339858196
 31
0.0
  0
LINE
  5
2AA
330
29B
100
AcDbEntity
  8
Symbol (ANSI)
100
AcDbLine
 10
3.297985851922307
 20
5.518957339858196
 30
0.0
 11
3.396411048772701
 21
5.518957339858196
 31
0.0
  0
MTEXT
  5
2AB
330
29B
100
AcDbEntity
  8
Symbol (ANSI)
100
AcDbMText
 10
3.394873155071913
 20
5.457693158805993
 30
0.0
 40
0.1200000014830762
 41
0.0
 71
     7
 72
     1
  1
A2
  7
Text Style29
 73
     1
 44
1.0
1001
ACAD
1000
MTEXTBEGIN
1070
    73
1070
     1
1070
    44
1040
1.0
1070
    74
1070
     0
1000
MTEXTEND
  0
ENDBLK
  5
29D
330
29B
100
AcDbEntity
  8
0
100
AcDbBlockEnd
  0
BLOCK
  5
2AE
330
2AD
100
AcDbEntity
  8
0
100
AcDbBlockBegin
  2
Hole Table2
 70
     0
 10
0.0
 20
0.0
 30
0.0
  3
Hole Table2
  1

  0
MTEXT
  5
2B0
330
2AD
100
AcDbEntity
  8
Symbol (ANSI)
100
AcDbMText
 10
7.285855284767587
 20
4.970761550256855
 30
0.0
 40
0.1200000014830762
 41
0.0
 71
     7
 72
     1
  1
Hole Table
  7
Text Style29
 73
     1
 44
1.0
1001
ACAD
1000
MTEXTBEGIN
1070
    73
1070
     1
1070
    44
1040
1.0
1070
    74
1070
     0
1000
MTEXTEND
  0
LINE
  5
2B1
330
2AD
100
AcDbEntity
  8
Symbol (ANSI)
100
AcDbLine
 10
4.8548578403937
 20
4.881011301797099
 30
0.0
 11
5.492970320411921
 21
4.881011301797099
 31
0.0
  0
LINE
  5
2B2
330
2AD
100
AcDbEntity
  8
Symbol (ANSI)
100
AcDbLine
 10
5.492970320411921
 20
4.881011301797099
 30
0.0
 11
5.492970320411921
 21
4.690932560156542
 31
0.0
  0
LINE
  5
2B3
330
2AD
100
AcDbEntity
  8
Symbol (ANSI)
100
AcDbLine
 10
4.8548578403937
 20
4.690932560156542
 30
0.0
 11
5.492970320411921
 21
4.690932560156542
 31
0.0
  0
MTEXT
  5
2B4
330
2AD
100
AcDbEntity
  8
Symbol (ANSI)
100
AcDbMText
 10
4.996501207224794
 20
4.723443568410842
 30
0.0
 40
0.1200000014830762
 41
0.0
 71
     7
 72
     1
  1
HOLE
  7
Text Style29
 73
     1
 44
1.0
1001
ACAD
1000
MTEXTBEGIN
1070
    73
1070
     1
1070
    44
1040
1.0
1070
    74
1070
     0
1000
MTEXTEND
  0
LINE
  5
2B5
330
2AD
100
AcDbEntity
  8
Symbol (ANSI)
100
AcDbLine
 10
5.492970320411921
 20
4.881011301797099
 30
0.0
 11
6.083521501514283
 21
4.881011301797099
 31
0.0
  0
LINE
  5
2B6
330
2AD
100
AcDbEntity
  8
Symbol (ANSI)
100
AcDbLine
 10
5.492970320411921
 20
4.881011301797099
 30
0.0
 11
5.492970320411921
 21
4.690932560156542
 31
0.0
  0
LINE
  5
2B7
330
2AD
100
AcDbEntity
  8
Symbol (ANSI)
100
AcDbLine
 10
6.083521501514283
 20
4.881011301797099
 30
0.0
 11
6.083521501514283
 21
4.690932560156542
 31
0.0
  0
LINE
  5
2B8
330
2AD
100
AcDbEntity
  8
Symbol (ANSI)
100
AcDbLine
 10
5.492970320411921
 20
4.690932560156542
 30
0.0
 11
6.083521501514283
 21
4.690932560156542
 31
0.0
  0
MTEXT
  5
2B9
330
2AD
100
AcDbEntity
  8
Symbol (ANSI)
100
AcDbMText
 10
5.591358182226946
 20
4.725971931438394
 30
0.0
 40
0.1200000014830762
 41
0.0
 71
     7
 72
     1
  1
XDIM
  7
Text Style29
 73
     1
 44
1.0
1001
ACAD
1000
MTEXTBEGIN
1070
    73
1070
     1
1070
    44
1040
1.0
1070
    74
1070
     0
1000
MTEXTEND
  0
LINE
  5
2BA
330
2AD
100
AcDbEntity
  8
Symbol (ANSI)
100
AcDbLine
 10
6.083521501514283
 20
4.881011301797099
 30
0.0
 11
6.887342818023686
 21
4.881011301797099
 31
0.0
  0
LINE
  5
2BB
330
2AD
100
AcDbEntity
  8
Symbol (ANSI)
100
AcDbLine
 10
6.083521501514283
 20
4.881011301797099
 30
0.0
 11
6.083521501514283
 21
4.690932560156542
 31
0.0
  0
LINE
  5
2BC
330
2AD
100
AcDbEntity
  8
Symbol (ANSI)
100
AcDbLine
 10
6.887342818023686
 20
4.881011301797099
 30
0.0
 11
6.887342818023686
 21
4.690932560156542
 31
0.0
  0
LINE
  5
2BD
330
2AD
100
AcDbEntity
  8
Symbol (ANSI)
100
AcDbLine
 10
6.083521501514283
 20
4.690932560156542
 30
0.0
 11
6.887342818023686
 21
4.690932560156542
 31
0.0
  0
MTEXT
  5
2BE
330
2AD
100
AcDbEntity
  8
Symbol (ANSI)
100
AcDbMText
 10
6.285809000232758
 20
4.725971931438394
 30
0.0
 40
0.1200000014830762
 41
0.0
 71
     7
 72
     1
  1
YDIM
  7
Text Style29
 73
     1
 44
1.0
1001
ACAD
1000
MTEXTBEGIN
1070
    73
1070
     1
1070
    44
1040
1.0
1070
    74
1070
     0
1000
MTEXTEND
  0
LINE
  5
2BF
330
2AD
100
AcDbEntity
  8
Symbol (ANSI)
100
AcDbLine
 10
6.887342818023686
 20
4.881011301797099
 30
0.0
 11
10.44470926381401
 21
4.881011301797099
 31
0.0
  0
LINE
  5
2C0
330
2AD
100
AcDbEntity
  8
Symbol (ANSI)
100
AcDbLine
 10
6.887342818023686
 20
4.881011301797099
 30
0.0
 11
6.887342818023686
 21
4.690932560156542
 31
0.0
  0
LINE
  5
2C1
330
2AD
100
AcDbEntity
  8
Symbol (ANSI)
100
AcDbLine
 10
6.887342818023686
 20
4.690932560156542
 30
0.0
 11
10.44470926381401
 21
4.690932560156542
 31
0.0
  0
MTEXT
  5
2C2
330
2AD
100
AcDbEntity
  8
Symbol (ANSI)
100
AcDbMText
 10
8.172373286037599
 20
4.723443568410842
 30
0.0
 40
0.1200000014830762
 41
0.0
 71
     7
 72
     1
  1
DESCRIPTION
  7
Text Style29
 73
     1
 44
1.0
1001
ACAD
1000
MTEXTBEGIN
1070
    73
1070
     1
1070
    44
1040
1.0
1070
    74
1070
     0
1000
MTEXTEND
  0
LINE
  5
2C3
330
2AD
100
AcDbEntity
  8
Symbol (ANSI)
100
AcDbLine
 10
4.8548578403937
 20
4.690932560156542
 30
0.0
 11
5.492970320411921
 21
4.690932560156542
 31
0.0
  0
LINE
  5
2C4
330
2AD
100
AcDbEntity
  8
Symbol (ANSI)
100
AcDbLine
 10
5.492970320411921
 20
4.690932560156542
 30
0.0
 11
5.492970320411921
 21
4.118485544052759
 31
0.0
  0
LINE
  5
2C5
330
2AD
100
AcDbEntity
  8
Symbol (ANSI)
100
AcDbLine
 10
4.8548578403937
 20
4.118485544052759
 30
0.0
 11
5.492970320411921
 21
4.118485544052759
 31
0.0
  0
MTEXT
  5
2C6
330
2AD
100
AcDbEntity
  8
Symbol (ANSI)
100
AcDbMText
 10
5.16483803538339
 20
4.344514563102565
 30
0.0
 40
0.1200000014830762
 41
0.0
 71
     7
 72
     1
  1
1
  7
Text Style29
 73
     1
 44
1.0
1001
ACAD
1000
MTEXTBEGIN
1070
    73
1070
     1
1070
    44
1040
1.0
1070
    74
1070
     0
1000
MTEXTEND
  0
LINE
  5
2C7
330
2AD
100
AcDbEntity
  8
Symbol (ANSI)
100
AcDbLine
 10
5.492970320411921
 20
4.690932560156542
 30
0.0
 11
6.083521501514283
 21
4.690932560156542
 31
0.0
  0
LINE
  5
2C8
330
2AD
100
AcDbEntity
  8
Symbol (ANSI)
100
AcDbLine
 10
5.492970320411921
 20
4.690932560156542
 30
0.0
 11
5.492970320411921
 21
4.118485544052759
 31
0.0
  0
LINE
  5
2C9
330
2AD
100
AcDbEntity
  8
Symbol (ANSI)
100
AcDbLine
 10
6.083521501514283
 20
4.690932560156542
 30
0.0
 11
6.083521501514283
 21
4.118485544052759
 31
0.0
  0
LINE
  5
2CA
330
2AD
100
AcDbEntity
  8
Symbol (ANSI)
100
AcDbLine
 10
5.492970320411921
 20
4.118485544052759
 30
0.0
 11
6.083521501514283
 21
4.118485544052759
 31
0.0
  0
MTEXT
  5
2CB
330
2AD
100
AcDbEntity
  8
Symbol (ANSI)
100
AcDbMText
 10
5.567623143349473
 20
4.342229311904586
 30
0.0
 40
0.1200000014830762
 41
0.0
 71
     7
 72
     1
  1
-0.715
  7
Text Style29
 73
     1
 44
1.0
1001
ACAD
1000
MTEXTBEGIN
1070
    73
1070
     1
1070
    44
1040
1.0
1070
    74
1070
     0
1000
MTEXTEND
  0
LINE
  5
2CC
330
2AD
100
AcDbEntity
  8
Symbol (ANSI)
100
AcDbLine
 10
6.083521501514283
 20
4.690932560156542
 30
0.0
 11
6.887342818023686
 21
4.690932560156542
 31
0.0
  0
LINE
  5
2CD
330
2AD
100
AcDbEntity
  8
Symbol (ANSI)
100
AcDbLine
 10
6.083521501514283
 20
4.690932560156542
 30
0.0
 11
6.083521501514283
 21
4.118485544052759
 31
0.0
  0
LINE
  5
2CE
330
2AD
100
AcDbEntity
  8
Symbol (ANSI)
100
AcDbLine
 10
6.887342818023686
 20
4.690932560156542
 30
0.0
 11
6.887342818023686
 21
4.118485544052759
 31
0.0
  0
LINE
  5
2CF
330
2AD
100
AcDbEntity
  8
Symbol (ANSI)
100
AcDbLine
 10
6.083521501514283
 20
4.118485544052759
 30
0.0
 11
6.887342818023686
 21
4.118485544052759
 31
0.0
  0
MTEXT
  5
2D0
330
2AD
100
AcDbEntity
  8
Symbol (ANSI)
100
AcDbMText
 10
6.264809392155355
 20
4.342180689538672
 30
0.0
 40
0.1200000014830762
 41
0.0
 71
     7
 72
     1
  1
-0.347
  7
Text Style29
 73
     1
 44
1.0
1001
ACAD
1000
MTEXTBEGIN
1070
    73
1070
     1
1070
    44
1040
1.0
1070
    74
1070
     0
1000
MTEXTEND
  0
MTEXT
  5
2D1
330
2AD
100
AcDbEntity
  8
Symbol (ANSI)
100
AcDbMText
 10
7.911957243185947
 20
4.510294732846729
 30
0.0
 40
0.1200000014830762
 41
0.0
 71
     7
 72
     1
  1
DRILL 
  7
Text Style29
 73
     1
 44
1.0
1001
ACAD
1000
MTEXTBEGIN
1070
    73
1070
     1
1070
    44
1040
1.0
1070
    74
1070
     0
1000
MTEXTEND
  0
MTEXT
  5
2D2
330
2AD
100
AcDbEntity
  8
Symbol (ANSI)
100
AcDbMText
 10
8.393340827801699
 20
4.480178902393205
 30
0.0
 40
0.1200000014830762
 41
0.0
 71
     7
 72
     1
  1
n
  7
Text Style6
 73
     1
 44
1.0
1001
ACAD
1000
MTEXTBEGIN
1070
    73
1070
     1
1070
    44
1040
1.0
1070
    74
1070
     0
1000
MTEXTEND
  0
MTEXT
  5
2D3
330
2AD
100
AcDbEntity
  8
Symbol (ANSI)
100
AcDbMText
 10
8.527242885220372
 20
4.480440600175259
 30
0.0
 40
0.1200000014830762
 41
0.0
 71
     7
 72
     1
  1
0.089 THRU,
  7
Text Style29
 73
     1
 44
1.0
1001
ACAD
1000
MTEXTBEGIN
1070
    73
1070
     1
1070
    44
1040
1.0
1070
    74
1070
     0
1000
MTEXTEND
  0
MTEXT
  5
2D4
330
2AD
100
AcDbEntity
  8
Symbol (ANSI)
100
AcDbMText
 10
7.305438186012518
 20
4.182366613296603
 30
0.0
 40
0.1200000014830762
 41
0.0
 71
     7
 72
     1
  1
v
  7
Text Style6
 73
     1
 44
1.0
1001
ACAD
1000
MTEXTBEGIN
1070
    73
1070
     1
1070
    44
1040
1.0
1070
    74
1070
     0
1000
MTEXTEND
  0
MTEXT
  5
2D5
330
2AD
100
AcDbEntity
  8
Symbol (ANSI)
100
AcDbMText
 10
7.548140954556092
 20
4.183640744585021
 30
0.0
 40
0.1200000014830762
 41
0.0
 71
     7
 72
     1
  1
 
  7
Text Style29
 73
     1
 44
1.0
1001
ACAD
1000
MTEXTBEGIN
1070
    73
1070
     1
1070
    44
1040
1.0
1070
    74
1070
     0
1000
MTEXTEND
  0
MTEXT
  5
2D6
330
2AD
100
AcDbEntity
  8
Symbol (ANSI)
100
AcDbMText
 10
7.61352170593874
 20
4.153524914131498
 30
0.0
 40
0.1200000014830762
 41
0.0
 71
     7
 72
     1
  1
n
  7
Text Style6
 73
     1
 44
1.0
1001
ACAD
1000
MTEXTBEGIN
1070
    73
1070
     1
1070
    44
1040
1.0
1070
    74
1070
     0
1000
MTEXTEND
  0
MTEXT
  5
2D7
330
2AD
100
AcDbEntity
  8
Symbol (ANSI)
100
AcDbMText
 10
7.747423763357413
 20
4.18111238155747
 30
0.0
 40
0.1200000014830762
 41
0.0
 71
     7
 72
     1
  1
0.156 
  7
Text Style29
 73
     1
 44
1.0
1001
ACAD
1000
MTEXTBEGIN
1070
    73
1070
     1
1070
    44
1040
1.0
1070
    74
1070
     0
1000
MTEXTEND
  0
MTEXT
  5
2D8
330
2AD
100
AcDbEntity
  8
Symbol (ANSI)
100
AcDbMText
 10
8.216254515917887
 20
4.175532636385996
 30
0.0
 40
0.1200000014830762
 41
0.0
 71
     7
 72
     1
  1
x
  7
Text Style6
 73
     1
 44
1.0
1001
ACAD
1000
MTEXTBEGIN
1070
    73
1070
     1
1070
    44
1040
1.0
1070
    74
1070
     0
1000
MTEXTEND
  0
MTEXT
  5
2D9
330
2AD
100
AcDbEntity
  8
Symbol (ANSI)
100
AcDbMText
 10
8.335800207982517
 20
4.18111238155747
 30
0.0
 40
0.1200000014830762
 41
0.0
 71
     7
 72
     1
  1
 0.22 FROM BACK SIDE
  7
Text Style29
 73
     1
 44
1.0
1001
ACAD
1000
MTEXTBEGIN
1070
    73
1070
     1
1070
    44
1040
1.0
1070
    74
1070
     0
1000
MTEXTEND
  0
LINE
  5
2DA
330
2AD
100
AcDbEntity
  8
Symbol (ANSI)
100
AcDbLine
 10
4.8548578403937
 20
4.118485544052759
 30
0.0
 11
5.492970320411921
 21
4.118485544052759
 31
0.0
  0
LINE
  5
2DB
330
2AD
100
AcDbEntity
  8
Symbol (ANSI)
100
AcDbLine
 10
5.492970320411921
 20
4.118485544052759
 30
0.0
 11
5.492970320411921
 21
3.546038527948975
 31
0.0
  0
LINE
  5
2DC
330
2AD
100
AcDbEntity
  8
Symbol (ANSI)
100
AcDbLine
 10
4.8548578403937
 20
3.546038527948975
 30
0.0
 11
5.492970320411921
 21
3.546038527948975
 31
0.0
  0
MTEXT
  5
2DD
330
2AD
100
AcDbEntity
  8
Symbol (ANSI)
100
AcDbMText
 10
5.146191074261343
 20
3.770997854948664
 30
0.0
 40
0.1200000014830762
 41
0.0
 71
     7
 72
     1
  1
2
  7
Text Style29
 73
     1
 44
1.0
1001
ACAD
1000
MTEXTBEGIN
1070
    73
1070
     1
1070
    44
1040
1.0
1070
    74
1070
     0
1000
MTEXTEND
  0
LINE
  5
2DE
330
2AD
100
AcDbEntity
  8
Symbol (ANSI)
100
AcDbLine
 10
5.492970320411921
 20
4.118485544052759
 30
0.0
 11
6.083521501514283
 21
4.118485544052759
 31
0.0
  0
LINE
  5
2DF
330
2AD
100
AcDbEntity
  8
Symbol (ANSI)
100
AcDbLine
 10
5.492970320411921
 20
4.118485544052759
 30
0.0
 11
5.492970320411921
 21
3.546038527948975
 31
0.0
  0
LINE
  5
2E0
330
2AD
100
AcDbEntity
  8
Symbol (ANSI)
100
AcDbLine
 10
6.083521501514283
 20
4.118485544052759
 30
0.0
 11
6.083521501514283
 21
3.546038527948975
 31
0.0
  0
LINE
  5
2E1
330
2AD
100
AcDbEntity
  8
Symbol (ANSI)
100
AcDbLine
 10
5.492970320411921
 20
3.546038527948975
 30
0.0
 11
6.083521501514283
 21
3.546038527948975
 31
0.0
  0
MTEXT
  5
2E2
330
2AD
100
AcDbEntity
  8
Symbol (ANSI)
100
AcDbMText
 10
5.567623143349473
 20
3.769782295800803
 30
0.0
 40
0.1200000014830762
 41
0.0
 71
     7
 72
     1
  1
-0.169
  7
Text Style29
 73
     1
 44
1.0
1001
ACAD
1000
MTEXTBEGIN
1070
    73
1070
     1
1070
    44
1040
1.0
1070
    74
1070
     0
1000
MTEXTEND
  0
LINE
  5
2E3
330
2AD
100
AcDbEntity
  8
Symbol (ANSI)
100
AcDbLine
 10
6.083521501514283
 20
4.118485544052759
 30
0.0
 11
6.887342818023686
 21
4.118485544052759
 31
0.0
  0
LINE
  5
2E4
330
2AD
100
AcDbEntity
  8
Symbol (ANSI)
100
AcDbLine
 10
6.083521501514283
 20
4.118485544052759
 30
0.0
 11
6.083521501514283
 21
3.546038527948975
 31
0.0
  0
LINE
  5
2E5
330
2AD
100
AcDbEntity
  8
Symbol (ANSI)
100
AcDbLine
 10
6.887342818023686
 20
4.118485544052759
 30
0.0
 11
6.887342818023686
 21
3.546038527948975
 31
0.0
  0
LINE
  5
2E6
330
2AD
100
AcDbEntity
  8
Symbol (ANSI)
100
AcDbLine
 10
6.083521501514283
 20
3.546038527948975
 30
0.0
 11
6.887342818023686
 21
3.546038527948975
 31
0.0
  0
MTEXT
  5
2E7
330
2AD
100
AcDbEntity
  8
Symbol (ANSI)
100
AcDbMText
 10
6.264809392155355
 20
3.769733673434888
 30
0.0
 40
0.1200000014830762
 41
0.0
 71
     7
 72
     1
  1
-0.347
  7
Text Style29
 73
     1
 44
1.0
1001
ACAD
1000
MTEXTBEGIN
1070
    73
1070
     1
1070
    44
1040
1.0
1070
    74
1070
     0
1000
MTEXTEND
  0
MTEXT
  5
2E8
330
2AD
100
AcDbEntity
  8
Symbol (ANSI)
100
AcDbMText
 10
7.911957243185947
 20
3.937847716742945
 30
0.0
 40
0.1200000014830762
 41
0.0
 71
     7
 72
     1
  1
DRILL 
  7
Text Style29
 73
     1
 44
1.0
1001
ACAD
1000
MTEXTBEGIN
1070
    73
1070
     1
1070
    44
1040
1.0
1070
    74
1070
     0
1000
MTEXTEND
  0
MTEXT
  5
2E9
330
2AD
100
AcDbEntity
  8
Symbol (ANSI)
100
AcDbMText
 10
8.393340827801699
 20
3.907731886289422
 30
0.0
 40
0.1200000014830762
 41
0.0
 71
     7
 72
     1
  1
n
  7
Text Style6
 73
     1
 44
1.0
1001
ACAD
1000
MTEXTBEGIN
1070
    73
1070
     1
1070
    44
1040
1.0
1070
    74
1070
     0
1000
MTEXTEND
  0
MTEXT
  5
2EA
330
2AD
100
AcDbEntity
  8
Symbol (ANSI)
100
AcDbMText
 10
8.527242885220372
 20
3.907993584071475
 30
0.0
 40
0.1200000014830762
 41
0.0
 71
     7
 72
     1
  1
0.089 THRU,
  7
Text Style29
 73
     1
 44
1.0
1001
ACAD
1000
MTEXTBEGIN
1070
    73
1070
     1
1070
    44
1040
1.0
1070
    74
1070
     0
1000
MTEXTEND
  0
MTEXT
  5
2EB
330
2AD
100
AcDbEntity
  8
Symbol (ANSI)
100
AcDbMText
 10
7.305438186012518
 20
3.609919597192819
 30
0.0
 40
0.1200000014830762
 41
0.0
 71
     7
 72
     1
  1
v
  7
Text Style6
 73
     1
 44
1.0
1001
ACAD
1000
MTEXTBEGIN
1070
    73
1070
     1
1070
    44
1040
1.0
1070
    74
1070
     0
1000
MTEXTEND
  0
MTEXT
  5
2EC
330
2AD
100
AcDbEntity
  8
Symbol (ANSI)
100
AcDbMText
 10
7.548140954556092
 20
3.611193728481238
 30
0.0
 40
0.1200000014830762
 41
0.0
 71
     7
 72
     1
  1
 
  7
Text Style29
 73
     1
 44
1.0
1001
ACAD
1000
MTEXTBEGIN
1070
    73
1070
     1
1070
    44
1040
1.0
1070
    74
1070
     0
1000
MTEXTEND
  0
MTEXT
  5
2ED
330
2AD
100
AcDbEntity
  8
Symbol (ANSI)
100
AcDbMText
 10
7.61352170593874
 20
3.581077898027714
 30
0.0
 40
0.1200000014830762
 41
0.0
 71
     7
 72
     1
  1
n
  7
Text Style6
 73
     1
 44
1.0
1001
ACAD
1000
MTEXTBEGIN
1070
    73
1070
     1
1070
    44
1040
1.0
1070
    74
1070
     0
1000
MTEXTEND
  0
MTEXT
  5
2EE
330
2AD
100
AcDbEntity
  8
Symbol (ANSI)
100
AcDbMText
 10
7.747423763357413
 20
3.608665365453687
 30
0.0
 40
0.1200000014830762
 41
0.0
 71
     7
 72
     1
  1
0.156 
  7
Text Style29
 73
     1
 44
1.0
1001
ACAD
1000
MTEXTBEGIN
1070
    73
1070
     1
1070
    44
1040
1.0
1070
    74
1070
     0
1000
MTEXTEND
  0
MTEXT
  5
2EF
330
2AD
100
AcDbEntity
  8
Symbol (ANSI)
100
AcDbMText
 10
8.216254515917887
 20
3.603085620282212
 30
0.0
 40
0.1200000014830762
 41
0.0
 71
     7
 72
     1
  1
x
  7
Text Style6
 73
     1
 44
1.0
1001
ACAD
1000
MTEXTBEGIN
1070
    73
1070
     1
1070
    44
1040
1.0
1070
    74
1070
     0
1000
MTEXTEND
  0
MTEXT
  5
2F0
330
2AD
100
AcDbEntity
  8
Symbol (ANSI)
100
AcDbMText
 10
8.335800207982517
 20
3.608665365453687
 30
0.0
 40
0.1200000014830762
 41
0.0
 71
     7
 72
     1
  1
 0.24 FROM BACK SIDE
  7
Text Style29
 73
     1
 44
1.0
1001
ACAD
1000
MTEXTBEGIN
1070
    73
1070
     1
1070
    44
1040
1.0
1070
    74
1070
     0
1000
MTEXTEND
  0
LINE
  5
2F1
330
2AD
100
AcDbEntity
  8
Symbol (ANSI)
100
AcDbLine
 10
6.887342818023686
 20
4.118485544052759
 30
0.0
 11
10.44470926381401
 21
4.118485544052759
 31
0.0
  0
LINE
  5
2F2
330
2AD
100
AcDbEntity
  8
Symbol (ANSI)
100
AcDbLine
 10
6.887342818023686
 20
4.118485544052759
 30
0.0
 11
6.887342818023686
 21
3.546038527948975
 31
0.0
  0
LINE
  5
2F3
330
2AD
100
AcDbEntity
  8
Symbol (ANSI)
100
AcDbLine
 10
10.44470926381401
 20
4.118485544052759
 30
0.0
 11
10.44470926381401
 21
3.546038527948975
 31
0.0
  0
LINE
  5
2F4
330
2AD
100
AcDbEntity
  8
Symbol (ANSI)
100
AcDbLine
 10
4.8548578403937
 20
3.546038527948975
 30
0.0
 11
5.492970320411921
 21
3.546038527948975
 31
0.0
  0
LINE
  5
2F5
330
2AD
100
AcDbEntity
  8
Symbol (ANSI)
100
AcDbLine
 10
5.492970320411921
 20
3.546038527948975
 30
0.0
 11
5.492970320411921
 21
3.300245500106898
 31
0.0
  0
LINE
  5
2F6
330
2AD
100
AcDbEntity
  8
Symbol (ANSI)
100
AcDbLine
 10
4.8548578403937
 20
3.300245500106898
 30
0.0
 11
5.492970320411921
 21
3.300245500106898
 31
0.0
  0
MTEXT
  5
2F7
330
2AD
100
AcDbEntity
  8
Symbol (ANSI)
100
AcDbMText
 10
5.144268707135359
 20
3.360613651461958
 30
0.0
 40
0.1200000014830762
 41
0.0
 71
     7
 72
     1
  1
3
  7
Text Style29
 73
     1
 44
1.0
1001
ACAD
1000
MTEXTBEGIN
1070
    73
1070
     1
1070
    44
1040
1.0
1070
    74
1070
     0
1000
MTEXTEND
  0
LINE
  5
2F8
330
2AD
100
AcDbEntity
  8
Symbol (ANSI)
100
AcDbLine
 10
5.492970320411921
 20
3.546038527948975
 30
0.0
 11
6.083521501514283
 21
3.546038527948975
 31
0.0
  0
LINE
  5
2F9
330
2AD
100
AcDbEntity
  8
Symbol (ANSI)
100
AcDbLine
 10
5.492970320411921
 20
3.546038527948975
 30
0.0
 11
5.492970320411921
 21
3.300245500106898
 31
0.0
  0
LINE
  5
2FA
330
2AD
100
AcDbEntity
  8
Symbol (ANSI)
100
AcDbLine
 10
6.083521501514283
 20
3.546038527948975
 30
0.0
 11
6.083521501514283
 21
3.300245500106898
 31
0.0
  0
LINE
  5
2FB
330
2AD
100
AcDbEntity
  8
Symbol (ANSI)
100
AcDbLine
 10
5.492970320411921
 20
3.300245500106898
 30
0.0
 11
6.083521501514283
 21
3.300245500106898
 31
0.0
  0
MTEXT
  5
2FC
330
2AD
100
AcDbEntity
  8
Symbol (ANSI)
100
AcDbMText
 10
5.522598827207549
 20
3.360662273827873
 30
0.0
 40
0.1200000014830762
 41
0.0
 71
     7
 72
     1
  1
-0.5751
  7
Text Style29
 73
     1
 44
1.0
1001
ACAD
1000
MTEXTBEGIN
1070
    73
1070
     1
1070
    44
1040
1.0
1070
    74
1070
     0
1000
MTEXTEND
  0
LINE
  5
2FD
330
2AD
100
AcDbEntity
  8
Symbol (ANSI)
100
AcDbLine
 10
6.083521501514283
 20
3.546038527948975
 30
0.0
 11
6.887342818023686
 21
3.546038527948975
 31
0.0
  0
LINE
  5
2FE
330
2AD
100
AcDbEntity
  8
Symbol (ANSI)
100
AcDbLine
 10
6.083521501514283
 20
3.546038527948975
 30
0.0
 11
6.083521501514283
 21
3.300245500106898
 31
0.0
  0
LINE
  5
2FF
330
2AD
100
AcDbEntity
  8
Symbol (ANSI)
100
AcDbLine
 10
6.887342818023686
 20
3.546038527948975
 30
0.0
 11
6.887342818023686
 21
3.300245500106898
 31
0.0
  0
LINE
  5
300
330
2AD
100
AcDbEntity
  8
Symbol (ANSI)
100
AcDbLine
 10
6.083521501514283
 20
3.300245500106898
 30
0.0
 11
6.887342818023686
 21
3.300245500106898
 31
0.0
  0
MTEXT
  5
301
330
2AD
100
AcDbEntity
  8
Symbol (ANSI)
100
AcDbMText
 10
6.219785076013431
 20
3.360613651461958
 30
0.0
 40
0.1200000014830762
 41
0.0
 71
     7
 72
     1
  1
-0.2500
  7
Text Style29
 73
     1
 44
1.0
1001
ACAD
1000
MTEXTBEGIN
1070
    73
1070
     1
1070
    44
1040
1.0
1070
    74
1070
     0
1000
MTEXTEND
  0
MTEXT
  5
302
330
2AD
100
AcDbEntity
  8
Symbol (ANSI)
100
AcDbMText
 10
7.764734914577517
 20
3.365400700639162
 30
0.0
 40
0.1200000014830762
 41
0.0
 71
     7
 72
     1
  1
REAM 
  7
Text Style29
 73
     1
 44
1.0
1001
ACAD
1000
MTEXTBEGIN
1070
    73
1070
     1
1070
    44
1040
1.0
1070
    74
1070
     0
1000
MTEXTEND
  0
MTEXT
  5
303
330
2AD
100
AcDbEntity
  8
Symbol (ANSI)
100
AcDbMText
 10
8.227253018995574
 20
3.335284870185638
 30
0.0
 40
0.1200000014830762
 41
0.0
 71
     7
 72
     1
  1
n
  7
Text Style6
 73
     1
 44
1.0
1001
ACAD
1000
MTEXTBEGIN
1070
    73
1070
     1
1070
    44
1040
1.0
1070
    74
1070
     0
1000
MTEXTEND
  0
MTEXT
  5
304
330
2AD
100
AcDbEntity
  8
Symbol (ANSI)
100
AcDbMText
 10
8.361155076414247
 20
3.36287233761161
 30
0.0
 40
0.1200000014830762
 41
0.0
 71
     7
 72
     1
  1
0.0945 
  7
Text Style29
 73
     1
 44
1.0
1001
ACAD
1000
MTEXTBEGIN
1070
    73
1070
     1
1070
    44
1040
1.0
1070
    74
1070
     0
1000
MTEXTEND
  0
MTEXT
  5
305
330
2AD
100
AcDbEntity
  8
Symbol (ANSI)
100
AcDbMText
 10
8.920034461258568
 20
3.357292592440136
 30
0.0
 40
0.1200000014830762
 41
0.0
 71
     7
 72
     1
  1
x
  7
Text Style6
 73
     1
 44
1.0
1001
ACAD
1000
MTEXTBEGIN
1070
    73
1070
     1
1070
    44
1040
1.0
1070
    74
1070
     0
1000
MTEXTEND
  0
MTEXT
  5
306
330
2AD
100
AcDbEntity
  8
Symbol (ANSI)
100
AcDbMText
 10
9.039580153323198
 20
3.36287233761161
 30
0.0
 40
0.1200000014830762
 41
0.0
 71
     7
 72
     1
  1
 0.23
  7
Text Style29
 73
     1
 44
1.0
1001
ACAD
1000
MTEXTBEGIN
1070
    73
1070
     1
1070
    44
1040
1.0
1070
    74
1070
     0
1000
MTEXTEND
  0
MTEXT
  5
307
330
2AD
100
AcDbEntity
  8
Symbol (ANSI)
100
AcDbMText
 10
9.429127529505334
 20
3.416162450653844
 30
0.0
 40
0.1200000014830762
 41
0.0
 71
     7
 72
     1
  1
**
  7
Text Style29
 73
     1
 44
1.0
1001
ACAD
1000
MTEXTBEGIN
1070
    73
1070
     1
1070
    44
1040
1.0
1070
    74
1070
     0
1000
MTEXTEND
  0
LINE
  5
308
330
2AD
100
AcDbEntity
  8
Symbol (ANSI)
100
AcDbLine
 10
6.887342818023686
 20
3.546038527948975
 30
0.0
 11
10.44470926381401
 21
3.546038527948975
 31
0.0
  0
LINE
  5
309
330
2AD
100
AcDbEntity
  8
Symbol (ANSI)
100
AcDbLine
 10
6.887342818023686
 20
3.546038527948975
 30
0.0
 11
6.887342818023686
 21
3.300245500106898
 31
0.0
  0
LINE
  5
30A
330
2AD
100
AcDbEntity
  8
Symbol (ANSI)
100
AcDbLine
 10
10.44470926381401
 20
3.546038527948975
 30
0.0
 11
10.44470926381401
 21
3.300245500106898
 31
0.0
  0
LINE
  5
30B
330
2AD
100
AcDbEntity
  8
Symbol (ANSI)
100
AcDbLine
 10
4.8548578403937
 20
3.300245500106898
 30
0.0
 11
5.492970320411921
 21
3.300245500106898
 31
0.0
  0
LINE
  5
30C
330
2AD
100
AcDbEntity
  8
Symbol (ANSI)
100
AcDbLine
 10
5.492970320411921
 20
3.300245500106898
 30
0.0
 11
5.492970320411921
 21
3.054452472264822
 31
0.0
  0
LINE
  5
30D
330
2AD
100
AcDbEntity
  8
Symbol (ANSI)
100
AcDbLine
 10
4.8548578403937
 20
3.054452472264822
 30
0.0
 11
5.492970320411921
 21
3.054452472264822
 31
0.0
  0
MTEXT
  5
30E
330
2AD
100
AcDbEntity
  8
Symbol (ANSI)
100
AcDbMText
 10
5.135233581643233
 20
3.117348986647433
 30
0.0
 40
0.1200000014830762
 41
0.0
 71
     7
 72
     1
  1
4
  7
Text Style29
 73
     1
 44
1.0
1001
ACAD
1000
MTEXTBEGIN
1070
    73
1070
     1
1070
    44
1040
1.0
1070
    74
1070
     0
1000
MTEXTEND
  0
LINE
  5
30F
330
2AD
100
AcDbEntity
  8
Symbol (ANSI)
100
AcDbLine
 10
5.492970320411921
 20
3.300245500106898
 30
0.0
 11
6.083521501514283
 21
3.300245500106898
 31
0.0
  0
LINE
  5
310
330
2AD
100
AcDbEntity
  8
Symbol (ANSI)
100
AcDbLine
 10
5.492970320411921
 20
3.300245500106898
 30
0.0
 11
5.492970320411921
 21
3.054452472264822
 31
0.0
  0
LINE
  5
311
330
2AD
100
AcDbEntity
  8
Symbol (ANSI)
100
AcDbLine
 10
6.083521501514283
 20
3.300245500106898
 30
0.0
 11
6.083521501514283
 21
3.054452472264822
 31
0.0
  0
LINE
  5
312
330
2AD
100
AcDbEntity
  8
Symbol (ANSI)
100
AcDbLine
 10
5.492970320411921
 20
3.054452472264822
 30
0.0
 11
6.083521501514283
 21
3.054452472264822
 31
0.0
  0
MTEXT
  5
313
330
2AD
100
AcDbEntity
  8
Symbol (ANSI)
100
AcDbMText
 10
5.522598827207549
 20
3.114869245985796
 30
0.0
 40
0.1200000014830762
 41
0.0
 71
     7
 72
     1
  1
-0.1691
  7
Text Style29
 73
     1
 44
1.0
1001
ACAD
1000
MTEXTBEGIN
1070
    73
1070
     1
1070
    44
1040
1.0
1070
    74
1070
     0
1000
MTEXTEND
  0
LINE
  5
314
330
2AD
100
AcDbEntity
  8
Symbol (ANSI)
100
AcDbLine
 10
6.083521501514283
 20
3.300245500106898
 30
0.0
 11
6.887342818023686
 21
3.300245500106898
 31
0.0
  0
LINE
  5
315
330
2AD
100
AcDbEntity
  8
Symbol (ANSI)
100
AcDbLine
 10
6.083521501514283
 20
3.300245500106898
 30
0.0
 11
6.083521501514283
 21
3.054452472264822
 31
0.0
  0
LINE
  5
316
330
2AD
100
AcDbEntity
  8
Symbol (ANSI)
100
AcDbLine
 10
6.887342818023686
 20
3.300245500106898
 30
0.0
 11
6.887342818023686
 21
3.054452472264822
 31
0.0
  0
LINE
  5
317
330
2AD
100
AcDbEntity
  8
Symbol (ANSI)
100
AcDbLine
 10
6.083521501514283
 20
3.054452472264822
 30
0.0
 11
6.887342818023686
 21
3.054452472264822
 31
0.0
  0
MTEXT
  5
318
330
2AD
100
AcDbEntity
  8
Symbol (ANSI)
100
AcDbMText
 10
6.219785076013431
 20
3.114869245985796
 30
0.0
 40
0.1200000014830762
 41
0.0
 71
     7
 72
     1
  1
-0.1000
  7
Text Style29
 73
     1
 44
1.0
1001
ACAD
1000
MTEXTBEGIN
1070
    73
1070
     1
1070
    44
1040
1.0
1070
    74
1070
     0
1000
MTEXTEND
  0
LINE
  5
319
330
2AD
100
AcDbEntity
  8
Symbol (ANSI)
100
AcDbLine
 10
4.8548578403937
 20
3.054452472264822
 30
0.0
 11
5.492970320411921
 21
3.054452472264822
 31
0.0
  0
LINE
  5
31A
330
2AD
100
AcDbEntity
  8
Symbol (ANSI)
100
AcDbLine
 10
5.492970320411921
 20
3.054452472264822
 30
0.0
 11
5.492970320411921
 21
2.808659444422745
 31
0.0
  0
LINE
  5
31B
330
2AD
100
AcDbEntity
  8
Symbol (ANSI)
100
AcDbLine
 10
4.8548578403937
 20
2.808659444422745
 30
0.0
 11
5.492970320411921
 21
2.808659444422745
 31
0.0
  0
MTEXT
  5
31C
330
2AD
100
AcDbEntity
  8
Symbol (ANSI)
100
AcDbMText
 10
5.148690151525123
 20
2.870291777291581
 30
0.0
 40
0.1200000014830762
 41
0.0
 71
     7
 72
     1
  1
5
  7
Text Style29
 73
     1
 44
1.0
1001
ACAD
1000
MTEXTBEGIN
1070
    73
1070
     1
1070
    44
1040
1.0
1070
    74
1070
     0
1000
MTEXTEND
  0
LINE
  5
31D
330
2AD
100
AcDbEntity
  8
Symbol (ANSI)
100
AcDbLine
 10
5.492970320411921
 20
3.054452472264822
 30
0.0
 11
6.083521501514283
 21
3.054452472264822
 31
0.0
  0
LINE
  5
31E
330
2AD
100
AcDbEntity
  8
Symbol (ANSI)
100
AcDbLine
 10
5.492970320411921
 20
3.054452472264822
 30
0.0
 11
5.492970320411921
 21
2.808659444422745
 31
0.0
  0
LINE
  5
31F
330
2AD
100
AcDbEntity
  8
Symbol (ANSI)
100
AcDbLine
 10
6.083521501514283
 20
3.054452472264822
 30
0.0
 11
6.083521501514283
 21
2.808659444422745
 31
0.0
  0
LINE
  5
320
330
2AD
100
AcDbEntity
  8
Symbol (ANSI)
100
AcDbLine
 10
5.492970320411921
 20
2.808659444422745
 30
0.0
 11
6.083521501514283
 21
2.808659444422745
 31
0.0
  0
MTEXT
  5
321
330
2AD
100
AcDbEntity
  8
Symbol (ANSI)
100
AcDbMText
 10
5.567623143349473
 20
2.86907621814372
 30
0.0
 40
0.1200000014830762
 41
0.0
 71
     7
 72
     1
  1
-0.566
  7
Text Style29
 73
     1
 44
1.0
1001
ACAD
1000
MTEXTBEGIN
1070
    73
1070
     1
1070
    44
1040
1.0
1070
    74
1070
     0
1000
MTEXTEND
  0
LINE
  5
322
330
2AD
100
AcDbEntity
  8
Symbol (ANSI)
100
AcDbLine
 10
6.083521501514283
 20
3.054452472264822
 30
0.0
 11
6.887342818023686
 21
3.054452472264822
 31
0.0
  0
LINE
  5
323
330
2AD
100
AcDbEntity
  8
Symbol (ANSI)
100
AcDbLine
 10
6.083521501514283
 20
3.054452472264822
 30
0.0
 11
6.083521501514283
 21
2.808659444422745
 31
0.0
  0
LINE
  5
324
330
2AD
100
AcDbEntity
  8
Symbol (ANSI)
100
AcDbLine
 10
6.887342818023686
 20
3.054452472264822
 30
0.0
 11
6.887342818023686
 21
2.808659444422745
 31
0.0
  0
LINE
  5
325
330
2AD
100
AcDbEntity
  8
Symbol (ANSI)
100
AcDbLine
 10
6.083521501514283
 20
2.808659444422745
 30
0.0
 11
6.887342818023686
 21
2.808659444422745
 31
0.0
  0
MTEXT
  5
326
330
2AD
100
AcDbEntity
  8
Symbol (ANSI)
100
AcDbMText
 10
6.264809392155355
 20
2.86907621814372
 30
0.0
 40
0.1200000014830762
 41
0.0
 71
     7
 72
     1
  1
-0.099
  7
Text Style29
 73
     1
 44
1.0
1001
ACAD
1000
MTEXTBEGIN
1070
    73
1070
     1
1070
    44
1040
1.0
1070
    74
1070
     0
1000
MTEXTEND
  0
MTEXT
  5
327
330
2AD
100
AcDbEntity
  8
Symbol (ANSI)
100
AcDbMText
 10
7.93694914221073
 20
2.873814644955009
 30
0.0
 40
0.1200000014830762
 41
0.0
 71
     7
 72
     1
  1
DRILL 
  7
Text Style29
 73
     1
 44
1.0
1001
ACAD
1000
MTEXTBEGIN
1070
    73
1070
     1
1070
    44
1040
1.0
1070
    74
1070
     0
1000
MTEXTEND
  0
MTEXT
  5
328
330
2AD
100
AcDbEntity
  8
Symbol (ANSI)
100
AcDbMText
 10
8.418332726826482
 20
2.843698814501486
 30
0.0
 40
0.1200000014830762
 41
0.0
 71
     7
 72
     1
  1
n
  7
Text Style6
 73
     1
 44
1.0
1001
ACAD
1000
MTEXTBEGIN
1070
    73
1070
     1
1070
    44
1040
1.0
1070
    74
1070
     0
1000
MTEXTEND
  0
MTEXT
  5
329
330
2AD
100
AcDbEntity
  8
Symbol (ANSI)
100
AcDbMText
 10
8.552234784245156
 20
2.8710917924638
 30
0.0
 40
0.1200000014830762
 41
0.0
 71
     7
 72
     1
  1
0.089 THRU
  7
Text Style29
 73
     1
 44
1.0
1001
ACAD
1000
MTEXTBEGIN
1070
    73
1070
     1
1070
    44
1040
1.0
1070
    74
1070
     0
1000
MTEXTEND
  0
LINE
  5
32A
330
2AD
100
AcDbEntity
  8
Symbol (ANSI)
100
AcDbLine
 10
6.887342818023686
 20
3.054452472264822
 30
0.0
 11
10.44470926381401
 21
3.054452472264822
 31
0.0
  0
LINE
  5
32B
330
2AD
100
AcDbEntity
  8
Symbol (ANSI)
100
AcDbLine
 10
6.887342818023686
 20
3.054452472264822
 30
0.0
 11
6.887342818023686
 21
2.808659444422745
 31
0.0
  0
LINE
  5
32C
330
2AD
100
AcDbEntity
  8
Symbol (ANSI)
100
AcDbLine
 10
10.44470926381401
 20
3.054452472264822
 30
0.0
 11
10.44470926381401
 21
2.808659444422745
 31
0.0
  0
LINE
  5
32D
330
2AD
100
AcDbEntity
  8
Symbol (ANSI)
100
AcDbLine
 10
4.8548578403937
 20
2.808659444422745
 30
0.0
 11
5.492970320411921
 21
2.808659444422745
 31
0.0
  0
LINE
  5
32E
330
2AD
100
AcDbEntity
  8
Symbol (ANSI)
100
AcDbLine
 10
5.492970320411921
 20
2.808659444422745
 30
0.0
 11
5.492970320411921
 21
2.562866416580669
 31
0.0
  0
MTEXT
  5
32F
330
2AD
100
AcDbEntity
  8
Symbol (ANSI)
100
AcDbMText
 10
5.142346340009375
 20
2.623380435033472
 30
0.0
 40
0.1200000014830762
 41
0.0
 71
     7
 72
     1
  1
6
  7
Text Style29
 73
     1
 44
1.0
1001
ACAD
1000
MTEXTBEGIN
1070
    73
1070
     1
1070
    44
1040
1.0
1070
    74
1070
     0
1000
MTEXTEND
  0
LINE
  5
330
330
2AD
100
AcDbEntity
  8
Symbol (ANSI)
100
AcDbLine
 10
5.492970320411921
 20
2.808659444422745
 30
0.0
 11
6.083521501514283
 21
2.808659444422745
 31
0.0
  0
LINE
  5
331
330
2AD
100
AcDbEntity
  8
Symbol (ANSI)
100
AcDbLine
 10
5.492970320411921
 20
2.808659444422745
 30
0.0
 11
5.492970320411921
 21
2.562866416580669
 31
0.0
  0
LINE
  5
332
330
2AD
100
AcDbEntity
  8
Symbol (ANSI)
100
AcDbLine
 10
6.083521501514283
 20
2.808659444422745
 30
0.0
 11
6.083521501514283
 21
2.562866416580669
 31
0.0
  0
MTEXT
  5
333
330
2AD
100
AcDbEntity
  8
Symbol (ANSI)
100
AcDbMText
 10
5.567623143349473
 20
2.623040078472071
 30
0.0
 40
0.1200000014830762
 41
0.0
 71
     7
 72
     1
  1
-0.368
  7
Text Style29
 73
     1
 44
1.0
1001
ACAD
1000
MTEXTBEGIN
1070
    73
1070
     1
1070
    44
1040
1.0
1070
    74
1070
     0
1000
MTEXTEND
  0
LINE
  5
334
330
2AD
100
AcDbEntity
  8
Symbol (ANSI)
100
AcDbLine
 10
6.083521501514283
 20
2.808659444422745
 30
0.0
 11
6.887342818023686
 21
2.808659444422745
 31
0.0
  0
LINE
  5
335
330
2AD
100
AcDbEntity
  8
Symbol (ANSI)
100
AcDbLine
 10
6.083521501514283
 20
2.808659444422745
 30
0.0
 11
6.083521501514283
 21
2.562866416580669
 31
0.0
  0
LINE
  5
336
330
2AD
100
AcDbEntity
  8
Symbol (ANSI)
100
AcDbLine
 10
6.887342818023686
 20
2.808659444422745
 30
0.0
 11
6.887342818023686
 21
2.562866416580669
 31
0.0
  0
MTEXT
  5
337
330
2AD
100
AcDbEntity
  8
Symbol (ANSI)
100
AcDbMText
 10
6.264809392155355
 20
2.623283190301644
 30
0.0
 40
0.1200000014830762
 41
0.0
 71
     7
 72
     1
  1
-0.099
  7
Text Style29
 73
     1
 44
1.0
1001
ACAD
1000
MTEXTBEGIN
1070
    73
1070
     1
1070
    44
1040
1.0
1070
    74
1070
     0
1000
MTEXTEND
  0
LINE
  5
338
330
2AD
100
AcDbEntity
  8
Symbol (ANSI)
100
AcDbLine
 10
4.8548578403937
 20
2.562866416580669
 30
0.0
 11
4.8548578403937
 21
5.188388621071606
 31
0.0
  0
LINE
  5
339
330
2AD
100
AcDbEntity
  8
Symbol (ANSI)
100
AcDbLine
 10
4.8548578403937
 20
5.188388621071606
 30
0.0
 11
10.44470926381401
 21
5.188388621071606
 31
0.0
  0
LINE
  5
33A
330
2AD
100
AcDbEntity
  8
Symbol (ANSI)
100
AcDbLine
 10
10.44470926381401
 20
5.188388621071606
 30
0.0
 11
10.44470926381401
 21
2.562866416580669
 31
0.0
  0
LINE
  5
33B
330
2AD
100
AcDbEntity
  8
Symbol (ANSI)
100
AcDbLine
 10
10.44470926381401
 20
2.562866416580669
 30
0.0
 11
4.8548578403937
 21
2.562866416580669
 31
0.0
  0
ENDBLK
  5
2AF
330
2AD
100
AcDbEntity
  8
0
100
AcDbBlockEnd
  0
BLOCK
  5
33E
330
33D
100
AcDbEntity
  8
0
100
AcDbBlockBegin
  2
Leader Text7
 70
     0
 10
0.0
 20
0.0
 30
0.0
  3
Leader Text7
  1

  0
LINE
  5
340
330
33D
100
AcDbEntity
  8
Symbol (ANSI)
100
AcDbLine
 10
1.818266247950719
 20
3.782620118636562
 30
0.0
 11
1.828675989031933
 21
3.684746952417925
 31
0.0
  0
POLYLINE
  5
341
330
33D
100
AcDbEntity
  8
Symbol (ANSI)
100
AcDb2dPolyline
 66
     1
 10
0.0
 20
0.0
 30
0.0
 70
   128
  0
VERTEX
  5
342
330
341
100
AcDbEntity
  8
Symbol (ANSI)
100
AcDbVertex
100
AcDb2dVertex
 10
1.798691524295356
 20
3.780538078368179
 30
0.0
  0
VERTEX
  5
343
330
341
100
AcDbEntity
  8
Symbol (ANSI)
100
AcDbVertex
100
AcDb2dVertex
 10
1.828675945912759
 20
3.68474712522011
 30
0.0
  0
VERTEX
  5
345
330
341
100
AcDbEntity
  8
Symbol (ANSI)
100
AcDbVertex
100
AcDb2dVertex
 10
1.837840793639655
 20
3.784701955600047
 30
0.0
  0
VERTEX
  5
346
330
341
100
AcDbEntity
  8
Symbol (ANSI)
100
AcDbVertex
100
AcDb2dVertex
 10
1.798691524295356
 20
3.780538078368179
 30
0.0
  0
SEQEND
  5
344
330
341
100
AcDbEntity
  8
Symbol (ANSI)
  0
SOLID
  5
347
330
33D
100
AcDbEntity
  8
Symbol (ANSI)
100
AcDbTrace
 10
1.798691524295356
 20
3.780538078368179
 30
0.0
 11
1.828675945912759
 21
3.68474712522011
 31
0.0
 12
1.837840793639655
 22
3.784701955600047
 32
0.0
 13
1.798691524295356
 23
3.780538078368179
 33
0.0
  0
LINE
  5
348
330
33D
100
AcDbEntity
  8
Symbol (ANSI)
100
AcDbLine
 10
1.798691614706992
 20
3.780538170420319
 30
0.0
 11
1.828675989031933
 21
3.684746952417925
 31
0.0
  0
LINE
  5
349
330
33D
100
AcDbEntity
  8
Symbol (ANSI)
100
AcDbLine
 10
1.828675989031933
 20
3.684746952417925
 30
0.0
 11
1.837840881194447
 21
3.784702066852804
 31
0.0
  0
LINE
  5
34A
330
33D
100
AcDbEntity
  8
Symbol (ANSI)
100
AcDbLine
 10
1.837840881194447
 20
3.784702066852804
 30
0.0
 11
1.798691614706992
 21
3.780538170420319
 31
0.0
  0
LINE
  5
34B
330
33D
100
AcDbEntity
  8
Symbol (ANSI)
100
AcDbLine
 10
1.818266247950719
 20
3.782620118636562
 30
0.0
 11
1.719786849910206
 21
4.708530803478171
 31
0.0
  0
LINE
  5
34C
330
33D
100
AcDbEntity
  8
Symbol (ANSI)
100
AcDbLine
 10
1.719786849910206
 20
4.708530803478171
 30
0.0
 11
1.559834248354925
 21
4.708530803478171
 31
0.0
  0
MTEXT
  5
34D
330
33D
100
AcDbEntity
  8
Symbol (ANSI)
100
AcDbMText
 10
1.485164564812148
 20
4.646002440912193
 30
0.0
 40
0.1200000014830762
 41
0.0
 71
     7
 72
     1
  1
3
  7
Text Style29
 73
     1
 44
1.0
1001
ACAD
1000
MTEXTBEGIN
1070
    73
1070
     1
1070
    44
1040
1.0
1070
    74
1070
     0
1000
MTEXTEND
  0
ENDBLK
  5
33F
330
33D
100
AcDbEntity
  8
0
100
AcDbBlockEnd
  0
BLOCK
  5
350
330
34F
100
AcDbEntity
  8
0
100
AcDbBlockBegin
  2
Leader Text8
 70
     0
 10
0.0
 20
0.0
 30
0.0
  3
Leader Text8
  1

  0
LINE
  5
352
330
34F
100
AcDbEntity
  8
Symbol (ANSI)
100
AcDbLine
 10
3.443282904586571
 20
4.382726415422173
 30
0.0
 11
3.45334328873057
 21
4.284816722102697
 31
0.0
  0
POLYLINE
  5
353
330
34F
100
AcDbEntity
  8
Symbol (ANSI)
100
AcDb2dPolyline
 66
     1
 10
0.0
 20
0.0
 30
0.0
 70
   128
  0
VERTEX
  5
354
330
353
100
AcDbEntity
  8
Symbol (ANSI)
100
AcDbVertex
100
AcDb2dVertex
 10
3.423700933381327
 20
4.380714236281987
 30
0.0
  0
VERTEX
  5
355
330
353
100
AcDbEntity
  8
Symbol (ANSI)
100
AcDbVertex
100
AcDb2dVertex
 10
3.453343308816744
 20
4.284816651832399
 30
0.0
  0
VERTEX
  5
357
330
353
100
AcDbEntity
  8
Symbol (ANSI)
100
AcDbVertex
100
AcDb2dVertex
 10
3.462864658025305
 20
4.384738441527359
 30
0.0
  0
VERTEX
  5
358
330
353
100
AcDbEntity
  8
Symbol (ANSI)
100
AcDbVertex
100
AcDb2dVertex
 10
3.423700933381327
 20
4.380714236281987
 30
0.0
  0
SEQEND
  5
356
330
353
100
AcDbEntity
  8
Symbol (ANSI)
  0
SOLID
  5
359
330
34F
100
AcDbEntity
  8
Symbol (ANSI)
100
AcDbTrace
 10
3.423700933381327
 20
4.380714236281987
 30
0.0
 11
3.453343308816744
 21
4.284816651832399
 31
0.0
 12
3.462864658025305
 22
4.384738441527359
 32
0.0
 13
3.423700933381327
 23
4.380714236281987
 33
0.0
  0
LINE
  5
35A
330
34F
100
AcDbEntity
  8
Symbol (ANSI)
100
AcDbLine
 10
3.423700965922677
 20
4.380714338593374
 30
0.0
 11
3.45334328873057
 21
4.284816722102697
 31
0.0
  0
LINE
  5
35B
330
34F
100
AcDbEntity
  8
Symbol (ANSI)
100
AcDbLine
 10
3.45334328873057
 20
4.284816722102697
 30
0.0
 11
3.462864843250467
 21
4.384738492250974
 31
0.0
  0
LINE
  5
35C
330
34F
100
AcDbEntity
  8
Symbol (ANSI)
100
AcDbLine
 10
3.462864843250467
 20
4.384738492250974
 30
0.0
 11
3.423700965922677
 21
4.380714338593374
 31
0.0
  0
LINE
  5
35D
330
34F
100
AcDbEntity
  8
Symbol (ANSI)
100
AcDbLine
 10
3.443282904586571
 20
4.382726415422173
 30
0.0
 11
3.415284426396177
 21
4.655213268190011
 31
0.0
  0
LINE
  5
35E
330
34F
100
AcDbEntity
  8
Symbol (ANSI)
100
AcDbLine
 10
3.415284426396177
 20
4.655213268190011
 30
0.0
 11
3.316859229545783
 21
4.655213268190011
 31
0.0
  0
MTEXT
  5
35F
330
34F
100
AcDbEntity
  8
Symbol (ANSI)
100
AcDbMText
 10
3.23315442051088
 20
4.595213268651584
 30
0.0
 40
0.1200000014830762
 41
0.0
 71
     7
 72
     1
  1
4
  7
Text Style29
 73
     1
 44
1.0
1001
ACAD
1000
MTEXTBEGIN
1070
    73
1070
     1
1070
    44
1040
1.0
1070
    74
1070
     0
1000
MTEXTEND
  0
ENDBLK
  5
351
330
34F
100
AcDbEntity
  8
0
100
AcDbBlockEnd
  0
BLOCK
  5
362
330
361
100
AcDbEntity
  8
0
100
AcDbBlockBegin
  2
Leader Text9
 70
     0
 10
0.0
 20
0.0
 30
0.0
  3
Leader Text9
  1

  0
LINE
  5
364
330
361
100
AcDbEntity
  8
Symbol (ANSI)
100
AcDbLine
 10
2.748084554831618
 20
4.368827486650305
 30
0.0
 11
2.722609803095704
 21
4.273756163955014
 31
0.0
  0
POLYLINE
  5
365
330
361
100
AcDbEntity
  8
Symbol (ANSI)
100
AcDb2dPolyline
 66
     1
 10
0.0
 20
0.0
 30
0.0
 70
   128
  0
VERTEX
  5
366
330
365
100
AcDbEntity
  8
Symbol (ANSI)
100
AcDbVertex
100
AcDb2dVertex
 10
2.729070280480572
 20
4.373922498207392
 30
0.0
  0
VERTEX
  5
367
330
365
100
AcDbEntity
  8
Symbol (ANSI)
100
AcDbVertex
100
AcDb2dVertex
 10
2.722609887911578
 20
4.273756282536063
 30
0.0
  0
VERTEX
  5
369
330
365
100
AcDbEntity
  8
Symbol (ANSI)
100
AcDbVertex
100
AcDb2dVertex
 10
2.76709879477193
 20
4.363732450590358
 30
0.0
  0
VERTEX
  5
36A
330
365
100
AcDbEntity
  8
Symbol (ANSI)
100
AcDbVertex
100
AcDb2dVertex
 10
2.729070280480572
 20
4.373922498207392
 30
0.0
  0
SEQEND
  5
368
330
365
100
AcDbEntity
  8
Symbol (ANSI)
  0
SOLID
  5
36B
330
361
100
AcDbEntity
  8
Symbol (ANSI)
100
AcDbTrace
 10
2.729070280480572
 20
4.373922498207392
 30
0.0
 11
2.722609887911578
 21
4.273756282536063
 31
0.0
 12
2.76709879477193
 22
4.363732450590358
 32
0.0
 13
2.729070280480572
 23
4.373922498207392
 33
0.0
  0
LINE
  5
36C
330
361
100
AcDbEntity
  8
Symbol (ANSI)
100
AcDbLine
 10
2.72907029029256
 20
4.373922436997489
 30
0.0
 11
2.722609803095704
 21
4.273756163955014
 31
0.0
  0
LINE
  5
36D
330
361
100
AcDbEntity
  8
Symbol (ANSI)
100
AcDbLine
 10
2.722609803095704
 20
4.273756163955014
 30
0.0
 11
2.767098819370676
 21
4.363732536303123
 31
0.0
  0
LINE
  5
36E
330
361
100
AcDbEntity
  8
Symbol (ANSI)
100
AcDbLine
 10
2.767098819370676
 20
4.363732536303123
 30
0.0
 11
2.72907029029256
 21
4.373922436997489
 31
0.0
  0
LINE
  5
36F
330
361
100
AcDbEntity
  8
Symbol (ANSI)
100
AcDbLine
 10
2.748084554831618
 20
4.368827486650305
 30
0.0
 11
2.82706755432381
 21
4.663590643128027
 31
0.0
  0
LINE
  5
370
330
361
100
AcDbEntity
  8
Symbol (ANSI)
100
AcDbLine
 10
2.82706755432381
 20
4.663590643128027
 30
0.0
 11
2.925492751174204
 21
4.663590643128027
 31
0.0
  0
MTEXT
  5
371
330
361
100
AcDbEntity
  8
Symbol (ANSI)
100
AcDbMText
 10
2.938949321056094
 20
4.601208147659792
 30
0.0
 40
0.1200000014830762
 41
0.0
 71
     7
 72
     1
  1
6
  7
Text Style29
 73
     1
 44
1.0
1001
ACAD
1000
MTEXTBEGIN
1070
    73
1070
     1
1070
    44
1040
1.0
1070
    74
1070
     0
1000
MTEXTEND
  0
ENDBLK
  5
363
330
361
100
AcDbEntity
  8
0
100
AcDbBlockEnd
  0
BLOCK
  5
374
330
373
100
AcDbEntity
  8
0
100
AcDbBlockBegin
  2
Leader Text10
 70
     0
 10
0.0
 20
0.0
 30
0.0
  3
Leader Text10
  1

  0
LINE
  5
376
330
373
100
AcDbEntity
  8
Symbol (ANSI)
100
AcDbLine
 10
2.002975891183219
 20
4.351607916793379
 30
0.0
 11
1.960819186949299
 21
4.26266787146411
 31
0.0
  0
POLYLINE
  5
377
330
373
100
AcDbEntity
  8
Symbol (ANSI)
100
AcDb2dPolyline
 66
     1
 10
0.0
 20
0.0
 30
0.0
 70
   128
  0
VERTEX
  5
378
330
377
100
AcDbEntity
  8
Symbol (ANSI)
100
AcDbVertex
100
AcDb2dVertex
 10
1.985187793341208
 20
4.360039403119424
 30
0.0
  0
VERTEX
  5
379
330
377
100
AcDbEntity
  8
Symbol (ANSI)
100
AcDbVertex
100
AcDb2dVertex
 10
1.960819161783053
 20
4.262667753565029
 30
0.0
  0
VERTEX
  5
37B
330
377
100
AcDbEntity
  8
Symbol (ANSI)
100
AcDbVertex
100
AcDb2dVertex
 10
2.020763975428783
 20
4.343176638986181
 30
0.0
  0
VERTEX
  5
37C
330
377
100
AcDbEntity
  8
Symbol (ANSI)
100
AcDbVertex
100
AcDb2dVertex
 10
1.985187793341208
 20
4.360039403119424
 30
0.0
  0
SEQEND
  5
37A
330
377
100
AcDbEntity
  8
Symbol (ANSI)
  0
SOLID
  5
37D
330
373
100
AcDbEntity
  8
Symbol (ANSI)
100
AcDbTrace
 10
1.985187793341208
 20
4.360039403119424
 30
0.0
 11
1.960819161783053
 21
4.262667753565029
 31
0.0
 12
2.020763975428783
 22
4.343176638986181
 32
0.0
 13
1.985187793341208
 23
4.360039403119424
 33
0.0
  0
LINE
  5
37E
330
373
100
AcDbEntity
  8
Symbol (ANSI)
100
AcDbLine
 10
1.985187882117365
 20
4.360039257640163
 30
0.0
 11
1.960819186949299
 21
4.26266787146411
 31
0.0
  0
LINE
  5
37F
330
373
100
AcDbEntity
  8
Symbol (ANSI)
100
AcDbLine
 10
1.960819186949299
 20
4.26266787146411
 30
0.0
 11
2.020763900249073
 21
4.343176575946595
 31
0.0
  0
LINE
  5
380
330
373
100
AcDbEntity
  8
Symbol (ANSI)
100
AcDbLine
 10
2.020763900249073
 20
4.343176575946595
 30
0.0
 11
1.985187882117365
 21
4.360039257640163
 31
0.0
  0
LINE
  5
381
330
373
100
AcDbEntity
  8
Symbol (ANSI)
100
AcDbLine
 10
2.002975891183219
 20
4.351607916793379
 30
0.0
 11
2.156990627494638
 21
4.676540282305276
 31
0.0
  0
LINE
  5
382
330
373
100
AcDbEntity
  8
Symbol (ANSI)
100
AcDbLine
 10
2.156990627494638
 20
4.676540282305276
 30
0.0
 11
2.255415824345032
 21
4.676540282305276
 31
0.0
  0
MTEXT
  5
383
330
373
100
AcDbEntity
  8
Symbol (ANSI)
100
AcDbMText
 10
2.275216205742669
 20
4.615276101253073
 30
0.0
 40
0.1200000014830762
 41
0.0
 71
     7
 72
     1
  1
5
  7
Text Style29
 73
     1
 44
1.0
1001
ACAD
1000
MTEXTBEGIN
1070
    73
1070
     1
1070
    44
1040
1.0
1070
    74
1070
     0
1000
MTEXTEND
  0
ENDBLK
  5
375
330
373
100
AcDbEntity
  8
0
100
AcDbBlockEnd
  0
BLOCK
  5
386
330
385
100
AcDbEntity
  8
0
100
AcDbBlockBegin
  2
Leader Text11
 70
     0
 10
0.0
 20
0.0
 30
0.0
  3
Leader Text11
  1

  0
LINE
  5
388
330
385
100
AcDbEntity
  8
Symbol (ANSI)
100
AcDbLine
 10
1.524112280301317
 20
2.965045088812968
 30
0.0
 11
1.44026192244761
 21
3.016587662117412
 31
0.0
  0
POLYLINE
  5
389
330
385
100
AcDbEntity
  8
Symbol (ANSI)
100
AcDb2dPolyline
 66
     1
 10
0.0
 20
0.0
 30
0.0
 70
   128
  0
VERTEX
  5
38A
330
389
100
AcDbEntity
  8
Symbol (ANSI)
100
AcDbVertex
100
AcDb2dVertex
 10
1.534420768107016
 20
2.981815187949833
 30
0.0
  0
VERTEX
  5
38B
330
389
100
AcDbEntity
  8
Symbol (ANSI)
100
AcDbVertex
100
AcDb2dVertex
 10
1.440261949704387
 20
3.016587692921555
 30
0.0
  0
VERTEX
  5
38D
330
389
100
AcDbEntity
  8
Symbol (ANSI)
100
AcDbVertex
100
AcDb2dVertex
 10
1.513803756143164
 20
2.948274950342853
 30
0.0
  0
VERTEX
  5
38E
330
389
100
AcDbEntity
  8
Symbol (ANSI)
100
AcDbVertex
100
AcDb2dVertex
 10
1.534420768107016
 20
2.981815187949833
 30
0.0
  0
SEQEND
  5
38C
330
389
100
AcDbEntity
  8
Symbol (ANSI)
  0
SOLID
  5
38F
330
385
100
AcDbEntity
  8
Symbol (ANSI)
100
AcDbTrace
 10
1.534420768107016
 20
2.981815187949833
 30
0.0
 11
1.440261949704387
 21
3.016587692921555
 31
0.0
 12
1.513803756143164
 22
2.948274950342853
 32
0.0
 13
1.534420768107016
 23
2.981815187949833
 33
0.0
  0
LINE
  5
390
330
385
100
AcDbEntity
  8
Symbol (ANSI)
100
AcDbLine
 10
1.534420794962206
 20
2.981815160383709
 30
0.0
 11
1.44026192244761
 21
3.016587662117412
 31
0.0
  0
LINE
  5
391
330
385
100
AcDbEntity
  8
Symbol (ANSI)
100
AcDbLine
 10
1.44026192244761
 20
3.016587662117412
 30
0.0
 11
1.513803765640428
 21
2.948275017242226
 31
0.0
  0
LINE
  5
392
330
385
100
AcDbEntity
  8
Symbol (ANSI)
100
AcDbLine
 10
1.513803765640428
 20
2.948275017242226
 30
0.0
 11
1.534420794962206
 21
2.981815160383709
 31
0.0
  0
LINE
  5
393
330
385
100
AcDbEntity
  8
Symbol (ANSI)
100
AcDbLine
 10
1.524112280301317
 20
2.965045088812968
 30
0.0
 11
1.717823728804057
 21
2.845971219721292
 31
0.0
  0
LINE
  5
394
330
385
100
AcDbEntity
  8
Symbol (ANSI)
100
AcDbLine
 10
1.717823728804057
 20
2.845971219721292
 30
0.0
 11
1.816248925654451
 21
2.845971219721292
 31
0.0
  0
MTEXT
  5
395
330
385
100
AcDbEntity
  8
Symbol (ANSI)
100
AcDbMText
 10
1.852197190910356
 20
2.785776730719207
 30
0.0
 40
0.1200000014830762
 41
0.0
 71
     7
 72
     1
  1
1
  7
Text Style29
 73
     1
 44
1.0
1001
ACAD
1000
MTEXTBEGIN
1070
    73
1070
     1
1070
    44
1040
1.0
1070
    74
1070
     0
1000
MTEXTEND
  0
ENDBLK
  5
387
330
385
100
AcDbEntity
  8
0
100
AcDbBlockEnd
  0
BLOCK
  5
398
330
397
100
AcDbEntity
  8
0
100
AcDbBlockBegin
  2
Leader Text12
 70
     0
 10
0.0
 20
0.0
 30
0.0
  3
Leader Text12
  1

  0
LINE
  5
39A
330
397
100
AcDbEntity
  8
Symbol (ANSI)
100
AcDbLine
 10
3.683564168929195
 20
2.931229573131098
 30
0.0
 11
3.608432873120481
 21
2.994812650794437
 31
0.0
  0
POLYLINE
  5
39B
330
397
100
AcDbEntity
  8
Symbol (ANSI)
100
AcDb2dPolyline
 66
     1
 10
0.0
 20
0.0
 30
0.0
 70
   128
  0
VERTEX
  5
39C
330
39B
100
AcDbEntity
  8
Symbol (ANSI)
100
AcDbVertex
100
AcDb2dVertex
 10
3.696280952513686
 20
2.946255901667076
 30
0.0
  0
VERTEX
  5
39D
330
39B
100
AcDbEntity
  8
Symbol (ANSI)
100
AcDbVertex
100
AcDb2dVertex
 10
3.608432904941828
 20
2.994812567402997
 30
0.0
  0
VERTEX
  5
39F
330
39B
100
AcDbEntity
  8
Symbol (ANSI)
100
AcDbVertex
100
AcDb2dVertex
 10
3.670847509789654
 20
2.916203333636906
 30
0.0
  0
VERTEX
  5
3A0
330
39B
100
AcDbEntity
  8
Symbol (ANSI)
100
AcDbVertex
100
AcDb2dVertex
 10
3.696280952513686
 20
2.946255901667076
 30
0.0
  0
SEQEND
  5
39E
330
39B
100
AcDbEntity
  8
Symbol (ANSI)
  0
SOLID
  5
3A1
330
397
100
AcDbEntity
  8
Symbol (ANSI)
100
AcDbTrace
 10
3.696280952513686
 20
2.946255901667076
 30
0.0
 11
3.608432904941828
 21
2.994812567402997
 31
0.0
 12
3.670847509789654
 22
2.916203333636906
 32
0.0
 13
3.696280952513686
 23
2.946255901667076
 33
0.0
  0
LINE
  5
3A2
330
397
100
AcDbEntity
  8
Symbol (ANSI)
100
AcDbLine
 10
3.696280784461863
 20
2.946255832292841
 30
0.0
 11
3.608432873120481
 21
2.994812650794437
 31
0.0
  0
LINE
  5
3A3
330
397
100
AcDbEntity
  8
Symbol (ANSI)
100
AcDbLine
 10
3.608432873120481
 20
2.994812650794437
 30
0.0
 11
3.670847553396527
 21
2.916203313969355
 31
0.0
  0
LINE
  5
3A4
330
397
100
AcDbEntity
  8
Symbol (ANSI)
100
AcDbLine
 10
3.670847553396527
 20
2.916203313969355
 30
0.0
 11
3.696280784461863
 21
2.946255832292841
 31
0.0
  0
LINE
  5
3A5
330
397
100
AcDbEntity
  8
Symbol (ANSI)
100
AcDbLine
 10
3.683564168929195
 20
2.931229573131098
 30
0.0
 11
3.7885071633585
 21
2.842417068392588
 31
0.0
  0
LINE
  5
3A6
330
397
100
AcDbEntity
  8
Symbol (ANSI)
100
AcDbLine
 10
3.7885071633585
 20
2.842417068392588
 30
0.0
 11
3.886932360208894
 21
2.842417068392588
 31
0.0
  0
MTEXT
  5
3A7
330
397
100
AcDbEntity
  8
Symbol (ANSI)
100
AcDbMText
 10
3.904233664342752
 20
2.781152887340385
 30
0.0
 40
0.1200000014830762
 41
0.0
 71
     7
 72
     1
  1
2
  7
Text Style29
 73
     1
 44
1.0
1001
ACAD
1000
MTEXTBEGIN
1070
    73
1070
     1
1070
    44
1040
1.0
1070
    74
1070
     0
1000
MTEXTEND
  0
ENDBLK
  5
399
330
397
100
AcDbEntity
  8
0
100
AcDbBlockEnd
  0
BLOCK
  5
3BA
330
3B9
100
AcDbEntity
  8
0
100
AcDbBlockBegin
  2
Origin Indicator Symbol3
 70
     0
 10
0.0
 20
0.0
 30
0.0
  3
Origin Indicator Symbol3
  1

  0
CIRCLE
  5
3BC
330
3B9
100
AcDbEntity
  8
Dimension (ANSI)
100
AcDbCircle
 10
4.148862587276761
 20
2.324170629727356
 30
0.0
 40
0.0984251968503937
  0
LINE
  5
3BD
102
{ACAD_REACTORS
330
3BF
102
}
330
3B9
100
AcDbEntity
  8
Dimension (ANSI)
100
AcDbLine
 10
4.148862587276761
 20
2.42259582657775
 30
0.0
 11
4.247287784127155
 21
2.324170629727356
 31
0.0
  0
ARC
  5
3BE
102
{ACAD_REACTORS
330
3BF
102
}
330
3B9
100
AcDbEntity
  8
Dimension (ANSI)
100
AcDbCircle
 10
4.148862587276761
 20
2.324170629727356
 30
0.0
 40
0.0984251968503937
100
AcDbArc
 50
0.0
 51
90.0
  0
HATCH
  5
3BF
330
3B9
100
AcDbEntity
  8
Dimension (ANSI)
100
AcDbHatch
 10
0.0
 20
0.0
 30
0.0
210
0.0
220
0.0
230
1.0
  2
SOLID
 70
     1
 71
     1
 91
        1
 92
        0
 93
        2
 72
     1
 10
4.148862587276761
 20
2.42259582657775
 11
4.247287784127155
 21
2.324170629727356
 72
     2
 10
4.148862587276761
 20
2.324170629727356
 40
0.0984251968503937
 50
0.0
 51
90.0
 73
     1
 97
        2
330
3BD
330
3BE
 75
     0
 76
     1
 98
        1
 10
0.0
 20
0.0
  0
LINE
  5
3C0
102
{ACAD_REACTORS
330
3C2
102
}
330
3B9
100
AcDbEntity
  8
Dimension (ANSI)
100
AcDbLine
 10
4.148862587276761
 20
2.225745432876963
 30
0.0
 11
4.050437390426368
 21
2.324170629727356
 31
0.0
  0
ARC
  5
3C1
102
{ACAD_REACTORS
330
3C2
102
}
330
3B9
100
AcDbEntity
  8
Dimension (ANSI)
100
AcDbCircle
 10
4.148862587276761
 20
2.324170629727356
 30
0.0
 40
0.0984251968503937
100
AcDbArc
 50
180.0
 51
270.0
  0
HATCH
  5
3C2
330
3B9
100
AcDbEntity
  8
Dimension (ANSI)
100
AcDbHatch
 10
0.0
 20
0.0
 30
0.0
210
0.0
220
0.0
230
1.0
  2
SOLID
 70
     1
 71
     1
 91
        1
 92
        0
 93
        2
 72
     1
 10
4.148862587276761
 20
2.225745432876963
 11
4.050437390426368
 21
2.324170629727356
 72
     2
 10
4.148862587276761
 20
2.324170629727356
 40
0.0984251968503937
 50
180.0
 51
270.0
 73
     1
 97
        2
330
3C0
330
3C1
 75
     0
 76
     1
 98
        1
 10
0.0
 20
0.0
  0
POLYLINE
  5
3C3
330
3B9
100
AcDbEntity
  8
Dimension (ANSI)
100
AcDb2dPolyline
 66
     1
 10
0.0
 20
0.0
 30
0.0
 70
   128
  0
VERTEX
  5
3C4
330
3C3
100
AcDbEntity
  8
Dimension (ANSI)
100
AcDbVertex
100
AcDb2dVertex
 10
4.148862493319773
 20
2.324170578183151
 30
0.0
  0
VERTEX
  5
3C5
330
3C3
100
AcDbEntity
  8
Dimension (ANSI)
100
AcDbVertex
100
AcDb2dVertex
 10
4.247287690170167
 20
2.324170578183151
 30
0.0
  0
VERTEX
  5
3C7
330
3C3
100
AcDbEntity
  8
Dimension (ANSI)
100
AcDbVertex
100
AcDb2dVertex
 10
4.148862493319773
 20
2.422595775033545
 30
0.0
  0
VERTEX
  5
3C8
330
3C3
100
AcDbEntity
  8
Dimension (ANSI)
100
AcDbVertex
100
AcDb2dVertex
 10
4.148862493319773
 20
2.324170578183151
 30
0.0
  0
SEQEND
  5
3C6
330
3C3
100
AcDbEntity
  8
Dimension (ANSI)
  0
SOLID
  5
3C9
330
3B9
100
AcDbEntity
  8
Dimension (ANSI)
100
AcDbTrace
 10
4.148862493319773
 20
2.324170578183151
 30
0.0
 11
4.247287690170167
 21
2.324170578183151
 31
0.0
 12
4.148862493319773
 22
2.422595775033545
 32
0.0
 13
4.148862493319773
 23
2.324170578183151
 33
0.0
  0
POLYLINE
  5
3CA
330
3B9
100
AcDbEntity
  8
Dimension (ANSI)
100
AcDb2dPolyline
 66
     1
 10
0.0
 20
0.0
 30
0.0
 70
   128
  0
VERTEX
  5
3CB
330
3CA
100
AcDbEntity
  8
Dimension (ANSI)
100
AcDbVertex
100
AcDb2dVertex
 10
4.148862493319773
 20
2.324170578183151
 30
0.0
  0
VERTEX
  5
3CC
330
3CA
100
AcDbEntity
  8
Dimension (ANSI)
100
AcDbVertex
100
AcDb2dVertex
 10
4.148862493319773
 20
2.422595775033545
 30
0.0
  0
VERTEX
  5
3CE
330
3CA
100
AcDbEntity
  8
Dimension (ANSI)
100
AcDbVertex
100
AcDb2dVertex
 10
4.148862493319773
 20
2.225745381332757
 30
0.0
  0
VERTEX
  5
3CF
330
3CA
100
AcDbEntity
  8
Dimension (ANSI)
100
AcDbVertex
100
AcDb2dVertex
 10
4.148862493319773
 20
2.324170578183151
 30
0.0
  0
SEQEND
  5
3CD
330
3CA
100
AcDbEntity
  8
Dimension (ANSI)
  0
SOLID
  5
3D0
330
3B9
100
AcDbEntity
  8
Dimension (ANSI)
100
AcDbTrace
 10
4.148862493319773
 20
2.324170578183151
 30
0.0
 11
4.148862493319773
 21
2.422595775033545
 31
0.0
 12
4.148862493319773
 22
2.225745381332757
 32
0.0
 13
4.148862493319773
 23
2.324170578183151
 33
0.0
  0
POLYLINE
  5
3D1
330
3B9
100
AcDbEntity
  8
Dimension (ANSI)
100
AcDb2dPolyline
 66
     1
 10
0.0
 20
0.0
 30
0.0
 70
   128
  0
VERTEX
  5
3D2
330
3D1
100
AcDbEntity
  8
Dimension (ANSI)
100
AcDbVertex
100
AcDb2dVertex
 10
4.148862493319773
 20
2.324170578183151
 30
0.0
  0
VERTEX
  5
3D3
330
3D1
100
AcDbEntity
  8
Dimension (ANSI)
100
AcDbVertex
100
AcDb2dVertex
 10
4.148862493319773
 20
2.225745381332757
 30
0.0
  0
VERTEX
  5
3D5
330
3D1
100
AcDbEntity
  8
Dimension (ANSI)
100
AcDbVertex
100
AcDb2dVertex
 10
4.05043729646938
 20
2.324170578183151
 30
0.0
  0
VERTEX
  5
3D6
330
3D1
100
AcDbEntity
  8
Dimension (ANSI)
100
AcDbVertex
100
AcDb2dVertex
 10
4.148862493319773
 20
2.324170578183151
 30
0.0
  0
SEQEND
  5
3D4
330
3D1
100
AcDbEntity
  8
Dimension (ANSI)
  0
SOLID
  5
3D7
330
3B9
100
AcDbEntity
  8
Dimension (ANSI)
100
AcDbTrace
 10
4.148862493319773
 20
2.324170578183151
 30
0.0
 11
4.148862493319773
 21
2.225745381332757
 31
0.0
 12
4.05043729646938
 22
2.324170578183151
 32
0.0
 13
4.148862493319773
 23
2.324170578183151
 33
0.0
  0
POLYLINE
  5
3D8
330
3B9
100
AcDbEntity
  8
Dimension (ANSI)
100
AcDb2dPolyline
 66
     1
 10
0.0
 20
0.0
 30
0.0
 70
   128
  0
VERTEX
  5
3D9
330
3D8
100
AcDbEntity
  8
Dimension (ANSI)
100
AcDbVertex
100
AcDb2dVertex
 10
4.148862493319773
 20
2.324170578183151
 30
0.0
  0
VERTEX
  5
3DA
330
3D8
100
AcDbEntity
  8
Dimension (ANSI)
100
AcDbVertex
100
AcDb2dVertex
 10
4.05043729646938
 20
2.324170578183151
 30
0.0
  0
VERTEX
  5
3DC
330
3D8
100
AcDbEntity
  8
Dimension (ANSI)
100
AcDbVertex
100
AcDb2dVertex
 10
4.148862493319773
 20
2.324170578183151
 30
0.0
  0
VERTEX
  5
3DD
330
3D8
100
AcDbEntity
  8
Dimension (ANSI)
100
AcDbVertex
100
AcDb2dVertex
 10
4.148862493319773
 20
2.324170578183151
 30
0.0
  0
SEQEND
  5
3DB
330
3D8
100
AcDbEntity
  8
Dimension (ANSI)
  0
SOLID
  5
3DE
330
3B9
100
AcDbEntity
  8
Dimension (ANSI)
100
AcDbTrace
 10
4.148862493319773
 20
2.324170578183151
 30
0.0
 11
4.05043729646938
 21
2.324170578183151
 31
0.0
 12
4.148862493319773
 22
2.324170578183151
 32
0.0
 13
4.148862493319773
 23
2.324170578183151
 33
0.0
  0
ENDBLK
  5
3BB
330
3B9
100
AcDbEntity
  8
0
100
AcDbBlockEnd
  0
BLOCK
  5
3E1
330
3E0
100
AcDbEntity
  8
0
100
AcDbBlockBegin
  2
Hole Table3
 70
     0
 10
0.0
 20
0.0
 30
0.0
  3
Hole Table3
  1

  0
MTEXT
  5
3E3
330
3E0
100
AcDbEntity
  8
Symbol (ANSI)
100
AcDbMText
 10
7.051258135819847
 20
1.803699954140179
 30
0.0
 40
0.1200000014830762
 41
0.0
 71
     7
 72
     1
  1
Hole Table
  7
Text Style29
 73
     1
 44
1.0
1001
ACAD
1000
MTEXTBEGIN
1070
    73
1070
     1
1070
    44
1040
1.0
1070
    74
1070
     0
1000
MTEXTEND
  0
LINE
  5
3E4
330
3E0
100
AcDbEntity
  8
Symbol (ANSI)
100
AcDbLine
 10
5.16409953673391
 20
1.713949705680423
 30
0.0
 11
6.092792576244224
 21
1.713949705680423
 31
0.0
  0
LINE
  5
3E5
330
3E0
100
AcDbEntity
  8
Symbol (ANSI)
100
AcDbLine
 10
6.092792576244224
 20
1.713949705680423
 30
0.0
 11
6.092792576244224
 21
1.523870964039867
 31
0.0
  0
LINE
  5
3E6
330
3E0
100
AcDbEntity
  8
Symbol (ANSI)
100
AcDbLine
 10
5.16409953673391
 20
1.523870964039867
 30
0.0
 11
6.092792576244224
 21
1.523870964039867
 31
0.0
  0
MTEXT
  5
3E7
330
3E0
100
AcDbEntity
  8
Symbol (ANSI)
100
AcDbMText
 10
5.451033183311051
 20
1.556381972294166
 30
0.0
 40
0.1200000014830762
 41
0.0
 71
     7
 72
     1
  1
HOLE
  7
Text Style29
 73
     1
 44
1.0
1001
ACAD
1000
MTEXTBEGIN
1070
    73
1070
     1
1070
    44
1040
1.0
1070
    74
1070
     0
1000
MTEXTEND
  0
LINE
  5
3E8
330
3E0
100
AcDbEntity
  8
Symbol (ANSI)
100
AcDbLine
 10
6.092792576244224
 20
1.713949705680423
 30
0.0
 11
6.824635222053751
 21
1.713949705680423
 31
0.0
  0
LINE
  5
3E9
330
3E0
100
AcDbEntity
  8
Symbol (ANSI)
100
AcDbLine
 10
6.092792576244224
 20
1.713949705680423
 30
0.0
 11
6.092792576244224
 21
1.523870964039867
 31
0.0
  0
LINE
  5
3EA
330
3E0
100
AcDbEntity
  8
Symbol (ANSI)
100
AcDbLine
 10
6.824635222053751
 20
1.713949705680423
 30
0.0
 11
6.824635222053751
 21
1.523870964039867
 31
0.0
  0
LINE
  5
3EB
330
3E0
100
AcDbEntity
  8
Symbol (ANSI)
100
AcDbLine
 10
6.092792576244224
 20
1.523870964039867
 30
0.0
 11
6.824635222053751
 21
1.523870964039867
 31
0.0
  0
MTEXT
  5
3EC
330
3E0
100
AcDbEntity
  8
Symbol (ANSI)
100
AcDbMText
 10
6.261826170412832
 20
1.558910335321718
 30
0.0
 40
0.1200000014830762
 41
0.0
 71
     7
 72
     1
  1
XDIM
  7
Text Style29
 73
     1
 44
1.0
1001
ACAD
1000
MTEXTBEGIN
1070
    73
1070
     1
1070
    44
1040
1.0
1070
    74
1070
     0
1000
MTEXTEND
  0
LINE
  5
3ED
330
3E0
100
AcDbEntity
  8
Symbol (ANSI)
100
AcDbLine
 10
6.824635222053751
 20
1.713949705680423
 30
0.0
 11
7.556477867863278
 21
1.713949705680423
 31
0.0
  0
LINE
  5
3EE
330
3E0
100
AcDbEntity
  8
Symbol (ANSI)
100
AcDbLine
 10
6.824635222053751
 20
1.713949705680423
 30
0.0
 11
6.824635222053751
 21
1.523870964039867
 31
0.0
  0
LINE
  5
3EF
330
3E0
100
AcDbEntity
  8
Symbol (ANSI)
100
AcDbLine
 10
7.556477867863278
 20
1.713949705680423
 30
0.0
 11
7.556477867863278
 21
1.523870964039867
 31
0.0
  0
LINE
  5
3F0
330
3E0
100
AcDbEntity
  8
Symbol (ANSI)
100
AcDbLine
 10
6.824635222053751
 20
1.523870964039867
 30
0.0
 11
7.556477867863278
 21
1.523870964039867
 31
0.0
  0
MTEXT
  5
3F1
330
3E0
100
AcDbEntity
  8
Symbol (ANSI)
100
AcDbMText
 10
6.990933385422287
 20
1.558910335321718
 30
0.0
 40
0.1200000014830762
 41
0.0
 71
     7
 72
     1
  1
YDIM
  7
Text Style29
 73
     1
 44
1.0
1001
ACAD
1000
MTEXTBEGIN
1070
    73
1070
     1
1070
    44
1040
1.0
1070
    74
1070
     0
1000
MTEXTEND
  0
LINE
  5
3F2
330
3E0
100
AcDbEntity
  8
Symbol (ANSI)
100
AcDbLine
 10
7.556477867863278
 20
1.713949705680423
 30
0.0
 11
9.666273269578317
 21
1.713949705680423
 31
0.0
  0
LINE
  5
3F3
330
3E0
100
AcDbEntity
  8
Symbol (ANSI)
100
AcDbLine
 10
7.556477867863278
 20
1.713949705680423
 30
0.0
 11
7.556477867863278
 21
1.523870964039867
 31
0.0
  0
LINE
  5
3F4
330
3E0
100
AcDbEntity
  8
Symbol (ANSI)
100
AcDbLine
 10
7.556477867863278
 20
1.523870964039867
 30
0.0
 11
9.666273269578317
 21
1.523870964039867
 31
0.0
  0
MTEXT
  5
3F5
330
3E0
100
AcDbEntity
  8
Symbol (ANSI)
100
AcDbMText
 10
8.117722813839547
 20
1.556381972294166
 30
0.0
 40
0.1200000014830762
 41
0.0
 71
     7
 72
     1
  1
DESCRIPTION
  7
Text Style29
 73
     1
 44
1.0
1001
ACAD
1000
MTEXTBEGIN
1070
    73
1070
     1
1070
    44
1040
1.0
1070
    74
1070
     0
1000
MTEXTEND
  0
LINE
  5
3F6
330
3E0
100
AcDbEntity
  8
Symbol (ANSI)
100
AcDbLine
 10
5.16409953673391
 20
1.523870964039867
 30
0.0
 11
6.092792576244224
 21
1.523870964039867
 31
0.0
  0
LINE
  5
3F7
330
3E0
100
AcDbEntity
  8
Symbol (ANSI)
100
AcDbLine
 10
6.092792576244224
 20
1.523870964039867
 30
0.0
 11
6.092792576244224
 21
1.27807793619779
 31
0.0
  0
LINE
  5
3F8
330
3E0
100
AcDbEntity
  8
Symbol (ANSI)
100
AcDbLine
 10
5.16409953673391
 20
1.27807793619779
 30
0.0
 11
6.092792576244224
 21
1.27807793619779
 31
0.0
  0
MTEXT
  5
3F9
330
3E0
100
AcDbEntity
  8
Symbol (ANSI)
100
AcDbMText
 10
5.487361967904498
 20
1.338494709918765
 30
0.0
 40
0.1200000014830762
 41
0.0
 71
     7
 72
     1
  1
A10
  7
Text Style29
 73
     1
 44
1.0
1001
ACAD
1000
MTEXTBEGIN
1070
    73
1070
     1
1070
    44
1040
1.0
1070
    74
1070
     0
1000
MTEXTEND
  0
LINE
  5
3FA
330
3E0
100
AcDbEntity
  8
Symbol (ANSI)
100
AcDbLine
 10
6.092792576244224
 20
1.523870964039867
 30
0.0
 11
6.824635222053751
 21
1.523870964039867
 31
0.0
  0
LINE
  5
3FB
330
3E0
100
AcDbEntity
  8
Symbol (ANSI)
100
AcDbLine
 10
6.092792576244224
 20
1.523870964039867
 30
0.0
 11
6.092792576244224
 21
1.27807793619779
 31
0.0
  0
LINE
  5
3FC
330
3E0
100
AcDbEntity
  8
Symbol (ANSI)
100
AcDbLine
 10
6.824635222053751
 20
1.523870964039867
 30
0.0
 11
6.824635222053751
 21
1.27807793619779
 31
0.0
  0
LINE
  5
3FD
330
3E0
100
AcDbEntity
  8
Symbol (ANSI)
100
AcDbLine
 10
6.092792576244224
 20
1.27807793619779
 30
0.0
 11
6.824635222053751
 21
1.27807793619779
 31
0.0
  0
MTEXT
  5
3FE
330
3E0
100
AcDbEntity
  8
Symbol (ANSI)
100
AcDbMText
 10
6.193066815393435
 20
1.338251598089192
 30
0.0
 40
0.1200000014830762
 41
0.0
 71
     7
 72
     1
  1
-0.3681
  7
Text Style29
 73
     1
 44
1.0
1001
ACAD
1000
MTEXTBEGIN
1070
    73
1070
     1
1070
    44
1040
1.0
1070
    74
1070
     0
1000
MTEXTEND
  0
LINE
  5
3FF
330
3E0
100
AcDbEntity
  8
Symbol (ANSI)
100
AcDbLine
 10
6.824635222053751
 20
1.523870964039867
 30
0.0
 11
7.556477867863278
 21
1.523870964039867
 31
0.0
  0
LINE
  5
400
330
3E0
100
AcDbEntity
  8
Symbol (ANSI)
100
AcDbLine
 10
6.824635222053751
 20
1.523870964039867
 30
0.0
 11
6.824635222053751
 21
1.27807793619779
 31
0.0
  0
LINE
  5
401
330
3E0
100
AcDbEntity
  8
Symbol (ANSI)
100
AcDbLine
 10
7.556477867863278
 20
1.523870964039867
 30
0.0
 11
7.556477867863278
 21
1.27807793619779
 31
0.0
  0
LINE
  5
402
330
3E0
100
AcDbEntity
  8
Symbol (ANSI)
100
AcDbLine
 10
6.824635222053751
 20
1.27807793619779
 30
0.0
 11
7.556477867863278
 21
1.27807793619779
 31
0.0
  0
MTEXT
  5
403
330
3E0
100
AcDbEntity
  8
Symbol (ANSI)
100
AcDbMText
 10
6.924909461202961
 20
1.338494709918765
 30
0.0
 40
0.1200000014830762
 41
0.0
 71
     7
 72
     1
  1
-0.1400
  7
Text Style29
 73
     1
 44
1.0
1001
ACAD
1000
MTEXTBEGIN
1070
    73
1070
     1
1070
    44
1040
1.0
1070
    74
1070
     0
1000
MTEXTEND
  0
MTEXT
  5
404
330
3E0
100
AcDbEntity
  8
Symbol (ANSI)
100
AcDbMText
 10
7.774363229425433
 20
1.343233136730054
 30
0.0
 40
0.1200000014830762
 41
0.0
 71
     7
 72
     1
  1
REAM 
  7
Text Style29
 73
     1
 44
1.0
1001
ACAD
1000
MTEXTBEGIN
1070
    73
1070
     1
1070
    44
1040
1.0
1070
    74
1070
     0
1000
MTEXTEND
  0
MTEXT
  5
405
330
3E0
100
AcDbEntity
  8
Symbol (ANSI)
100
AcDbMText
 10
8.23688133384349
 20
1.31311730627653
 30
0.0
 40
0.1200000014830762
 41
0.0
 71
     7
 72
     1
  1
n
  7
Text Style6
 73
     1
 44
1.0
1001
ACAD
1000
MTEXTBEGIN
1070
    73
1070
     1
1070
    44
1040
1.0
1070
    74
1070
     0
1000
MTEXTEND
  0
MTEXT
  5
406
330
3E0
100
AcDbEntity
  8
Symbol (ANSI)
100
AcDbMText
 10
8.35751905809287
 20
1.340704773702503
 30
0.0
 40
0.1200000014830762
 41
0.0
 71
     7
 72
     1
  1
 0.0635 
  7
Text Style29
 73
     1
 44
1.0
1001
ACAD
1000
MTEXTBEGIN
1070
    73
1070
     1
1070
    44
1040
1.0
1070
    74
1070
     0
1000
MTEXTEND
  0
MTEXT
  5
407
330
3E0
100
AcDbEntity
  8
Symbol (ANSI)
100
AcDbMText
 10
8.981202443115853
 20
1.335125028531028
 30
0.0
 40
0.1200000014830762
 41
0.0
 71
     7
 72
     1
  1
x
  7
Text Style6
 73
     1
 44
1.0
1001
ACAD
1000
MTEXTBEGIN
1070
    73
1070
     1
1070
    44
1040
1.0
1070
    74
1070
     0
1000
MTEXTEND
  0
MTEXT
  5
408
330
3E0
100
AcDbEntity
  8
Symbol (ANSI)
100
AcDbMText
 10
9.100748135180483
 20
1.340704773702503
 30
0.0
 40
0.1200000014830762
 41
0.0
 71
     7
 72
     1
  1
 0.21
  7
Text Style29
 73
     1
 44
1.0
1001
ACAD
1000
MTEXTBEGIN
1070
    73
1070
     1
1070
    44
1040
1.0
1070
    74
1070
     0
1000
MTEXTEND
  0
LINE
  5
409
330
3E0
100
AcDbEntity
  8
Symbol (ANSI)
100
AcDbLine
 10
5.16409953673391
 20
1.27807793619779
 30
0.0
 11
5.16409953673391
 21
2.02132702495493
 31
0.0
  0
LINE
  5
40A
330
3E0
100
AcDbEntity
  8
Symbol (ANSI)
100
AcDbLine
 10
5.16409953673391
 20
2.02132702495493
 30
0.0
 11
9.666273269578317
 21
2.02132702495493
 31
0.0
  0
LINE
  5
40B
330
3E0
100
AcDbEntity
  8
Symbol (ANSI)
100
AcDbLine
 10
9.666273269578317
 20
2.02132702495493
 30
0.0
 11
9.666273269578317
 21
1.27807793619779
 31
0.0
  0
LINE
  5
40C
330
3E0
100
AcDbEntity
  8
Symbol (ANSI)
100
AcDbLine
 10
9.666273269578317
 20
1.27807793619779
 30
0.0
 11
5.16409953673391
 21
1.27807793619779
 31
0.0
  0
ENDBLK
  5
3E2
330
3E0
100
AcDbEntity
  8
0
100
AcDbBlockEnd
  0
BLOCK
  5
40F
330
40E
100
AcDbEntity
  8
0
100
AcDbBlockBegin
  2
Leader Text13
 70
     0
 10
0.0
 20
0.0
 30
0.0
  3
Leader Text13
  1

  0
LINE
  5
411
330
40E
100
AcDbEntity
  8
Symbol (ANSI)
100
AcDbLine
 10
2.712963591277596
 20
1.672725256862495
 30
0.0
 11
2.676559427276762
 21
1.764170629727606
 31
0.0
  0
POLYLINE
  5
412
330
40E
100
AcDbEntity
  8
Symbol (ANSI)
100
AcDb2dPolyline
 66
     1
 10
0.0
 20
0.0
 30
0.0
 70
   128
  0
VERTEX
  5
413
330
412
100
AcDbEntity
  8
Symbol (ANSI)
100
AcDbVertex
100
AcDb2dVertex
 10
2.731252655269592
 20
1.680006004693939
 30
0.0
  0
VERTEX
  5
414
330
412
100
AcDbEntity
  8
Symbol (ANSI)
100
AcDbVertex
100
AcDb2dVertex
 10
2.676559433223693
 20
1.764170579084261
 30
0.0
  0
VERTEX
  5
416
330
412
100
AcDbEntity
  8
Symbol (ANSI)
100
AcDbVertex
100
AcDb2dVertex
 10
2.694674551956296
 20
1.665444449176938
 30
0.0
  0
VERTEX
  5
417
330
412
100
AcDbEntity
  8
Symbol (ANSI)
100
AcDbVertex
100
AcDb2dVertex
 10
2.731252655269592
 20
1.680006004693939
 30
0.0
  0
SEQEND
  5
415
330
412
100
AcDbEntity
  8
Symbol (ANSI)
  0
SOLID
  5
418
330
40E
100
AcDbEntity
  8
Symbol (ANSI)
100
AcDbTrace
 10
2.731252655269592
 20
1.680006004693939
 30
0.0
 11
2.676559433223693
 21
1.764170579084261
 31
0.0
 12
2.694674551956296
 22
1.665444449176938
 32
0.0
 13
2.731252655269592
 23
1.680006004693939
 33
0.0
  0
LINE
  5
419
330
40E
100
AcDbEntity
  8
Symbol (ANSI)
100
AcDbLine
 10
2.731252665850618
 20
1.680006089662662
 30
0.0
 11
2.676559427276762
 21
1.764170629727606
 31
0.0
  0
LINE
  5
41A
330
40E
100
AcDbEntity
  8
Symbol (ANSI)
100
AcDbLine
 10
2.676559427276762
 20
1.764170629727606
 30
0.0
 11
2.694674516704573
 21
1.665444424062328
 31
0.0
  0
LINE
  5
41B
330
40E
100
AcDbEntity
  8
Symbol (ANSI)
100
AcDbLine
 10
2.694674516704573
 20
1.665444424062328
 30
0.0
 11
2.731252665850618
 21
1.680006089662662
 31
0.0
  0
LINE
  5
41C
330
40E
100
AcDbEntity
  8
Symbol (ANSI)
100
AcDbLine
 10
2.712963591277596
 20
1.672725256862495
 30
0.0
 11
2.850118567567521
 21
1.328199066208857
 31
0.0
  0
LINE
  5
41D
330
40E
100
AcDbEntity
  8
Symbol (ANSI)
100
AcDbLine
 10
2.850118567567521
 20
1.328199066208857
 30
0.0
 11
2.948543764417915
 21
1.328199066208857
 31
0.0
  0
MTEXT
  5
41E
330
40E
100
AcDbEntity
  8
Symbol (ANSI)
100
AcDbMText
 10
2.947005870717127
 20
1.265719326008793
 30
0.0
 40
0.1200000014830762
 41
0.0
 71
     7
 72
     1
  1
A10
  7
Text Style29
 73
     1
 44
1.0
1001
ACAD
1000
MTEXTBEGIN
1070
    73
1070
     1
1070
    44
1040
1.0
1070
    74
1070
     0
1000
MTEXTEND
  0
ENDBLK
  5
410
330
40E
100
AcDbEntity
  8
0
100
AcDbBlockEnd
  0
ENDSEC
  0
SECTION
  2
ENTITIES
  0
INSERT
  5
FC
330
37
100
AcDbEntity
  8
0
100
AcDbBlockReference
  2
Borders Default Border
 10
0.0
 20
0.0
 30
0.0
 41
0.25
 42
0.25
 43
0.25
  0
LINE
  5
FD
330
37
100
AcDbEntity
  8
Visible (ANSI)
100
AcDbLine
 10
0.2075156568190847
 20
0.6744503437717581
 30
0.0
 11
0.6598908568190845
 21
0.6744503437717581
 31
0.0
  0
LINE
  5
FE
330
37
100
AcDbEntity
  8
Visible (ANSI)
100
AcDbLine
 10
0.6783888568190846
 20
0.6744503437717581
 30
0.0
 11
1.107515646819084
 21
0.6744503437717581
 31
0.0
  0
LINE
  5
FF
330
37
100
AcDbEntity
  8
Visible (ANSI)
100
AcDbLine
 10
0.6783888568190846
 20
0.6744503437717581
 30
0.0
 11
0.6598908568190845
 21
0.6744503437717581
 31
0.0
  0
LINE
  5
100
330
37
100
AcDbEntity
  8
Visible (ANSI)
100
AcDbLine
 10
0.9490156468190845
 20
0.9787003437717581
 30
0.0
 11
0.9490156468190845
 21
1.124450343771758
 31
0.0
  0
LINE
  5
101
330
37
100
AcDbEntity
  8
Visible (ANSI)
100
AcDbLine
 10
0.9490156468190845
 20
1.124450343771758
 30
0.0
 11
0.9175156468190843
 21
1.124450343771758
 31
0.0
  0
LINE
  5
102
330
37
100
AcDbEntity
  8
Visible (ANSI)
100
AcDbLine
 10
0.9175156468190843
 20
1.124450343771758
 30
0.0
 11
0.9175156468190843
 21
1.105950343771758
 31
0.0
  0
LINE
  5
103
330
37
100
AcDbEntity
  8
Visible (ANSI)
100
AcDbLine
 10
0.9175156468190843
 20
1.105950343771758
 30
0.0
 11
0.8990156468190843
 21
1.105950343771758
 31
0.0
  0
LINE
  5
104
330
37
100
AcDbEntity
  8
Visible (ANSI)
100
AcDbLine
 10
0.8990156468190843
 20
1.105950343771758
 30
0.0
 11
0.8990156468190843
 21
1.124450343771758
 31
0.0
  0
LINE
  5
105
330
37
100
AcDbEntity
  8
Visible (ANSI)
100
AcDbLine
 10
0.8990156468190843
 20
1.124450343771758
 30
0.0
 11
0.2075156568190849
 21
1.124450343771758
 31
0.0
  0
LINE
  5
106
330
37
100
AcDbEntity
  8
Visible (ANSI)
100
AcDbLine
 10
0.2075156568190849
 20
1.124450343771758
 30
0.0
 11
0.2075156568190847
 21
0.6744503437717581
 31
0.0
  0
LINE
  5
107
330
37
100
AcDbEntity
  8
Visible (ANSI)
100
AcDbLine
 10
0.6598908568190845
 20
0.6744503437717581
 30
0.0
 11
0.6598908568190845
 21
0.764450343772372
 31
0.0
  0
LINE
  5
108
330
37
100
AcDbEntity
  8
Visible (ANSI)
100
AcDbLine
 10
0.6598908568190845
 20
0.764450343772372
 30
0.0
 11
0.6598898568190847
 21
0.7894503437717583
 31
0.0
  0
LINE
  5
109
330
37
100
AcDbEntity
  8
Visible (ANSI)
100
AcDbLine
 10
0.6598898568190847
 20
0.7894503437717583
 30
0.0
 11
0.6598898568190847
 21
0.8894503437717581
 31
0.0
  0
ARC
  5
10A
330
37
100
AcDbEntity
  8
Visible (ANSI)
100
AcDbCircle
 10
0.7091398568190846
 20
0.8894503437717581
 30
0.0
 40
0.04925
100
AcDbArc
 50
90.0
 51
180.0
  0
LINE
  5
10B
330
37
100
AcDbEntity
  8
Visible (ANSI)
100
AcDbLine
 10
0.7091398568190846
 20
0.9387003437717583
 30
0.0
 11
0.8655641055146539
 21
0.9387003437717583
 31
0.0
  0
ARC
  5
10C
330
37
100
AcDbEntity
  8
Visible (ANSI)
100
AcDbCircle
 10
0.8701398568190848
 20
0.9309503437717575
 30
0.0
 40
0.0090000000000006
100
AcDbArc
 50
90.0000000000011
 51
120.5584317859345
  0
LINE
  5
10D
330
37
100
AcDbEntity
  8
Visible (ANSI)
100
AcDbLine
 10
0.8701398568190848
 20
0.939950343771758
 30
0.0
 11
0.8779149070200904
 21
0.939950343771758
 31
0.0
  0
ARC
  5
10E
330
37
100
AcDbEntity
  8
Visible (ANSI)
100
AcDbCircle
 10
0.8841398568190845
 20
0.9334503437717584
 30
0.0
 40
0.0089999999999997
100
AcDbArc
 50
90.0
 51
133.7617426926818
  0
LINE
  5
10F
330
37
100
AcDbEntity
  8
Visible (ANSI)
100
AcDbLine
 10
0.8841398568190845
 20
0.942450343771758
 30
0.0
 11
0.8910159533946972
 21
0.942450343771758
 31
0.0
  0
ARC
  5
110
330
37
100
AcDbEntity
  8
Visible (ANSI)
100
AcDbCircle
 10
0.8981398568190845
 20
0.9369503437717584
 30
0.0
 40
0.0089999999999999
100
AcDbArc
 50
90.0
 51
142.3301130356723
  0
LINE
  5
111
330
37
100
AcDbEntity
  8
Visible (ANSI)
100
AcDbLine
 10
0.8981398568190845
 20
0.9459503437717581
 30
0.0
 11
0.9054830025695922
 21
0.9459503437717581
 31
0.0
  0
ARC
  5
112
330
37
100
AcDbEntity
  8
Visible (ANSI)
100
AcDbCircle
 10
0.9111398568190852
 20
0.9389503437717559
 30
0.0
 40
0.0090000000000021
100
AcDbArc
 50
90.00000000000444
 51
128.9424412689763
  0
LINE
  5
113
330
37
100
AcDbEntity
  8
Visible (ANSI)
100
AcDbLine
 10
0.9111398568190844
 20
0.9479503437717582
 30
0.0
 11
0.9182656468190845
 21
0.9479503437717582
 31
0.0
  0
ARC
  5
114
330
37
100
AcDbEntity
  8
Visible (ANSI)
100
AcDbCircle
 10
0.9182656468190842
 20
0.9787003437717583
 30
0.0
 40
0.0307500000000001
100
AcDbArc
 50
270.0000000000003
 51
0.0
  0
LINE
  5
115
330
37
100
AcDbEntity
  8
Visible (ANSI)
100
AcDbLine
 10
0.8990156468190846
 20
1.124450343771758
 30
0.0
 11
0.9175156468190843
 21
1.124450343771758
 31
0.0
  0
LINE
  5
116
330
37
100
AcDbEntity
  8
Visible (ANSI)
100
AcDbLine
 10
1.037215646819084
 20
1.124450343771758
 30
0.0
 11
1.047515646819084
 21
1.124450343771758
 31
0.0
  0
LINE
  5
117
330
37
100
AcDbEntity
  8
Visible (ANSI)
100
AcDbLine
 10
1.047515646819084
 20
1.124450343771758
 30
0.0
 11
1.107515646819084
 21
1.124450343771758
 31
0.0
  0
LINE
  5
118
330
37
100
AcDbEntity
  8
Visible (ANSI)
100
AcDbLine
 10
0.6783888568190846
 20
0.7644503437716615
 30
0.0
 11
0.6783888568190846
 21
0.6744503437717581
 31
0.0
  0
LINE
  5
119
330
37
100
AcDbEntity
  8
Visible (ANSI)
100
AcDbLine
 10
1.107515646819084
 20
0.6744503437717581
 30
0.0
 11
1.107515646819084
 21
1.102450343771758
 31
0.0
  0
LINE
  5
11A
330
37
100
AcDbEntity
  8
Visible (ANSI)
100
AcDbLine
 10
1.107515646819084
 20
1.102450343771758
 30
0.0
 11
1.047515646819084
 21
1.102450343771758
 31
0.0
  0
LINE
  5
11B
330
37
100
AcDbEntity
  8
Visible (ANSI)
100
AcDbLine
 10
1.047515646819084
 20
1.102450343771758
 30
0.0
 11
1.047515646819084
 21
0.829450343771758
 31
0.0
  0
ARC
  5
11C
330
37
100
AcDbEntity
  8
Visible (ANSI)
100
AcDbCircle
 10
0.9982656468190846
 20
0.829450343771758
 30
0.0
 40
0.04925
100
AcDbArc
 50
180.0
 51
0.0
  0
LINE
  5
11D
330
37
100
AcDbEntity
  8
Visible (ANSI)
100
AcDbLine
 10
0.9490156468190845
 20
0.829450343771758
 30
0.0
 11
0.9490156468190845
 21
0.8802003437717582
 31
0.0
  0
ARC
  5
11E
330
37
100
AcDbEntity
  8
Visible (ANSI)
100
AcDbCircle
 10
0.9182656468190842
 20
0.880200343771758
 30
0.0
 40
0.0307500000000001
100
AcDbArc
 50
0.0
 51
89.99999999999969
  0
LINE
  5
11F
330
37
100
AcDbEntity
  8
Visible (ANSI)
100
AcDbLine
 10
0.9182656468190845
 20
0.9109503437717581
 30
0.0
 11
0.9111398568190844
 21
0.9109503437717581
 31
0.0
  0
ARC
  5
120
330
37
100
AcDbEntity
  8
Visible (ANSI)
100
AcDbCircle
 10
0.9111398568190852
 20
0.9199503437717597
 30
0.0
 40
0.0090000000000016
100
AcDbArc
 50
231.0575587310224
 51
269.9999999999966
  0
LINE
  5
121
330
37
100
AcDbEntity
  8
Visible (ANSI)
100
AcDbLine
 10
0.9054830025695922
 20
0.9129503437717582
 30
0.0
 11
0.8981398568190845
 21
0.9129503437717582
 31
0.0
  0
ARC
  5
122
330
37
100
AcDbEntity
  8
Visible (ANSI)
100
AcDbCircle
 10
0.8981398568190849
 20
0.9219503437717582
 30
0.0
 40
0.009
100
AcDbArc
 50
217.6698869643294
 51
269.9999999999989
  0
LINE
  5
123
330
37
100
AcDbEntity
  8
Visible (ANSI)
100
AcDbLine
 10
0.8910159533946972
 20
0.9164503437717581
 30
0.0
 11
0.8841398568190845
 21
0.9164503437717581
 31
0.0
  0
ARC
  5
124
330
37
100
AcDbEntity
  8
Visible (ANSI)
100
AcDbCircle
 10
0.8841398568190845
 20
0.9254503437717579
 30
0.0
 40
0.0089999999999997
100
AcDbArc
 50
226.2382573073182
 51
270.0
  0
LINE
  5
125
330
37
100
AcDbEntity
  8
Visible (ANSI)
100
AcDbLine
 10
0.8779149070200904
 20
0.9189503437717583
 30
0.0
 11
0.8701398568190848
 21
0.9189503437717583
 31
0.0
  0
ARC
  5
126
330
37
100
AcDbEntity
  8
Visible (ANSI)
100
AcDbCircle
 10
0.8701398568190848
 20
0.9279503437717584
 30
0.0
 40
0.0090000000000004
100
AcDbArc
 50
239.4415682140643
 51
269.9999999999989
  0
LINE
  5
127
330
37
100
AcDbEntity
  8
Visible (ANSI)
100
AcDbLine
 10
0.8655641055146539
 20
0.9202003437717582
 30
0.0
 11
0.7091398568190846
 21
0.9202003437717582
 31
0.0
  0
ARC
  5
128
330
37
100
AcDbEntity
  8
Visible (ANSI)
100
AcDbCircle
 10
0.7091398568190848
 20
0.8894503437717581
 30
0.0
 40
0.0307500000000001
100
AcDbArc
 50
90.00000000000033
 51
180.0
  0
LINE
  5
129
330
37
100
AcDbEntity
  8
Visible (ANSI)
100
AcDbLine
 10
0.6783898568190847
 20
0.8894503437717581
 30
0.0
 11
0.6783898568190847
 21
0.7894503437717583
 31
0.0
  0
LINE
  5
12A
330
37
100
AcDbEntity
  8
Visible (ANSI)
100
AcDbLine
 10
0.6783898568190847
 20
0.7894503437717583
 30
0.0
 11
0.6783888568190846
 21
0.7644503437716615
 31
0.0
  0
LINE
  5
12B
330
37
100
AcDbEntity
  8
Visible (ANSI)
100
AcDbLine
 10
1.107515646819084
 20
1.124450343771758
 30
0.0
 11
1.107515646819084
 21
1.102450343771758
 31
0.0
  0
LINE
  5
12C
330
37
100
AcDbEntity
  8
Visible (ANSI)
100
AcDbLine
 10
0.9490156468190845
 20
1.124450343771758
 30
0.0
 11
0.9675156468190845
 21
1.124450343771758
 31
0.0
  0
LINE
  5
12D
330
37
100
AcDbEntity
  8
Visible (ANSI)
100
AcDbLine
 10
1.029015646819084
 20
1.105950343771758
 30
0.0
 11
1.047515646819084
 21
1.105950343771758
 31
0.0
  0
LINE
  5
12E
330
37
100
AcDbEntity
  8
Visible (ANSI)
100
AcDbLine
 10
0.9675156468190845
 20
1.124450343771758
 30
0.0
 11
0.9675156468190845
 21
0.9787003437717581
 31
0.0
  0
ARC
  5
12F
330
37
100
AcDbEntity
  8
Visible (ANSI)
100
AcDbCircle
 10
0.9182656468190845
 20
0.9787003437717581
 30
0.0
 40
0.04925
100
AcDbArc
 50
281.5657063836214
 51
0.0
  0
LINE
  5
130
330
37
100
AcDbEntity
  8
Visible (ANSI)
100
AcDbLine
 10
0.9281398568190846
 20
0.9304503440113862
 30
0.0
 11
0.9281398568190846
 21
0.9284503435321301
 31
0.0
  0
ARC
  5
131
330
37
100
AcDbEntity
  8
Visible (ANSI)
100
AcDbCircle
 10
0.9182656468190845
 20
0.8802003437717583
 30
0.0
 40
0.0492499999999998
100
AcDbArc
 50
0.0
 51
78.43429361637882
  0
LINE
  5
132
330
37
100
AcDbEntity
  8
Visible (ANSI)
100
AcDbLine
 10
0.9675156468190845
 20
0.8802003437717582
 30
0.0
 11
0.9675156468190845
 21
0.829450343771758
 31
0.0
  0
ARC
  5
133
330
37
100
AcDbEntity
  8
Visible (ANSI)
100
AcDbCircle
 10
0.9982656468190846
 20
0.829450343771758
 30
0.0
 40
0.03075
100
AcDbArc
 50
180.0
 51
0.0
  0
ARC
  5
134
330
37
100
AcDbEntity
  8
Visible (ANSI)
100
AcDbCircle
 10
1.032515646819084
 20
1.112450343771758
 30
0.0
 40
0.0035
100
AcDbArc
 50
90.0
 51
180.0
  0
LINE
  5
135
330
37
100
AcDbEntity
  8
Visible (ANSI)
100
AcDbLine
 10
1.032515646819084
 20
1.115950343771758
 30
0.0
 11
1.037215646819084
 21
1.115950343771758
 31
0.0
  0
LINE
  5
136
330
37
100
AcDbEntity
  8
Visible (ANSI)
100
AcDbLine
 10
1.037215646819084
 20
1.115950343771758
 30
0.0
 11
1.037215646819084
 21
1.124450343771758
 31
0.0
  0
LINE
  5
137
330
37
100
AcDbEntity
  8
Visible (ANSI)
100
AcDbLine
 10
1.029015646819084
 20
0.829450343771758
 30
0.0
 11
1.029015646819084
 21
1.112450343771758
 31
0.0
  0
LINE
  5
138
330
37
100
AcDbEntity
  8
Visible (ANSI)
100
AcDbLine
 10
1.047515646819084
 20
1.102450343771758
 30
0.0
 11
1.047515646819084
 21
1.124450343771758
 31
0.0
  0
LINE
  5
139
330
37
100
AcDbEntity
  8
Visible (ANSI)
100
AcDbLine
 10
1.037215646819084
 20
1.124450343771758
 30
0.0
 11
0.9675156468190845
 21
1.124450343771758
 31
0.0
  0
CIRCLE
  5
13A
330
37
100
AcDbEntity
  8
Visible (ANSI)
100
AcDbCircle
 10
0.6691348060190849
 20
1.025455394571758
 30
0.0
 40
0.0445
  0
CIRCLE
  5
13B
330
37
100
AcDbEntity
  8
Visible (ANSI)
100
AcDbCircle
 10
0.6691348060190849
 20
1.025455394571758
 30
0.0
 40
0.0475000000000001
  0
CIRCLE
  5
13C
330
37
100
AcDbEntity
  8
Visible (ANSI)
100
AcDbCircle
 10
0.4711449076190848
 20
1.025455394571758
 30
0.0
 40
0.0475000000000001
  0
CIRCLE
  5
13D
330
37
100
AcDbEntity
  8
Visible (ANSI)
100
AcDbCircle
 10
0.3221550568190845
 20
0.7774503437717585
 30
0.0
 40
0.0475000000000001
  0
CIRCLE
  5
13E
330
37
100
AcDbEntity
  8
Visible (ANSI)
100
AcDbCircle
 10
0.4621398568190846
 20
0.8744503437717582
 30
0.0
 40
0.0500000000000001
  0
CIRCLE
  5
13F
330
37
100
AcDbEntity
  8
Visible (ANSI)
100
AcDbCircle
 10
0.8681398568190845
 20
1.024450343771758
 30
0.0
 40
0.0500000000000001
  0
CIRCLE
  5
140
330
37
100
AcDbEntity
  8
Visible (ANSI)
100
AcDbCircle
 10
0.4711449076190848
 20
1.025455394571758
 30
0.0
 40
0.0445
  0
CIRCLE
  5
141
330
37
100
AcDbEntity
  8
Visible (ANSI)
100
AcDbCircle
 10
0.8681398568190845
 20
1.024450343771758
 30
0.0
 40
0.047
  0
CIRCLE
  5
142
330
37
100
AcDbEntity
  8
Visible (ANSI)
100
AcDbCircle
 10
0.3221550568190845
 20
0.7774503437717585
 30
0.0
 40
0.0445
  0
CIRCLE
  5
143
330
37
100
AcDbEntity
  8
Visible (ANSI)
100
AcDbCircle
 10
0.4621398568190846
 20
0.8744503437717582
 30
0.0
 40
0.047
  0
CIRCLE
  5
144
330
37
100
AcDbEntity
  8
Visible (ANSI)
100
AcDbCircle
 10
0.8681398568190845
 20
0.7774503437717585
 30
0.0
 40
0.0445
  0
CIRCLE
  5
145
330
37
100
AcDbEntity
  8
Visible (ANSI)
100
AcDbCircle
 10
0.8681398568190845
 20
0.7774503437717585
 30
0.0
 40
0.0475000000000001
  0
CIRCLE
  5
146
330
37
100
AcDbEntity
  8
Visible (ANSI)
100
AcDbCircle
 10
0.4621398568190846
 20
0.8744503437717582
 30
0.0
 40
0.046875
  0
CIRCLE
  5
147
330
37
100
AcDbEntity
  8
Visible (ANSI)
100
AcDbCircle
 10
0.8681398568190845
 20
1.024450343771758
 30
0.0
 40
0.046875
  0
INSERT
  5
16E
330
37
100
AcDbEntity
  8
Dimension (ANSI)
100
AcDbBlockReference
  2
Origin Indicator Symbol1
 10
0.0
 20
0.0
 30
0.0
 41
0.25
 42
0.25
 43
0.25
  0
CIRCLE
  5
16F
330
37
100
AcDbEntity
  8
Visible (ANSI)
100
AcDbCircle
 10
0.7685563833434981
 20
1.529877034687697
 30
0.0
 40
0.0445
  0
CIRCLE
  5
170
330
37
100
AcDbEntity
  8
Visible (ANSI)
100
AcDbCircle
 10
0.5705664849434981
 20
1.529877034687697
 30
0.0
 40
0.0445
  0
CIRCLE
  5
171
330
37
100
AcDbEntity
  8
Visible (ANSI)
100
AcDbCircle
 10
0.7685563833434981
 20
1.529877034687697
 30
0.0
 40
0.0475000000000001
  0
CIRCLE
  5
172
330
37
100
AcDbEntity
  8
Visible (ANSI)
100
AcDbCircle
 10
0.5705664849434981
 20
1.529877034687697
 30
0.0
 40
0.0475000000000001
  0
CIRCLE
  5
173
330
37
100
AcDbEntity
  8
Visible (ANSI)
100
AcDbCircle
 10
0.9145614341434979
 20
1.798882085487698
 30
0.0
 40
0.0500000000000001
  0
CIRCLE
  5
174
330
37
100
AcDbEntity
  8
Visible (ANSI)
100
AcDbCircle
 10
0.3525766341434981
 20
1.680882085487698
 30
0.0
 40
0.0500000000000001
  0
CIRCLE
  5
175
330
37
100
AcDbEntity
  8
Visible (ANSI)
100
AcDbCircle
 10
0.3225766341434979
 20
1.529877035487698
 30
0.0
 40
0.046
  0
CIRCLE
  5
176
330
37
100
AcDbEntity
  8
Visible (ANSI)
100
AcDbCircle
 10
0.7685563341434981
 20
1.770882085487697
 30
0.0
 40
0.046
  0
CIRCLE
  5
177
330
37
100
AcDbEntity
  8
Visible (ANSI)
100
AcDbCircle
 10
0.7685563341434981
 20
1.770882085487697
 30
0.0
 40
0.043
  0
CIRCLE
  5
178
330
37
100
AcDbEntity
  8
Visible (ANSI)
100
AcDbCircle
 10
0.9145614341434979
 20
1.798882085487698
 30
0.0
 40
0.047
  0
CIRCLE
  5
179
330
37
100
AcDbEntity
  8
Visible (ANSI)
100
AcDbCircle
 10
0.3225766341434979
 20
1.529877035487698
 30
0.0
 40
0.043
  0
CIRCLE
  5
17A
330
37
100
AcDbEntity
  8
Visible (ANSI)
100
AcDbCircle
 10
0.3525766341434981
 20
1.680882085487698
 30
0.0
 40
0.047
  0
LINE
  5
17B
330
37
100
AcDbEntity
  8
Visible (ANSI)
100
AcDbLine
 10
0.9494372241434978
 20
1.430882085487697
 30
0.0
 11
0.9179372241434977
 21
1.430882085487697
 31
0.0
  0
LINE
  5
17C
330
37
100
AcDbEntity
  8
Visible (ANSI)
100
AcDbLine
 10
0.9179372241434977
 20
1.430882085487697
 30
0.0
 11
0.8994372241434977
 21
1.430882085487697
 31
0.0
  0
LINE
  5
17D
330
37
100
AcDbEntity
  8
Visible (ANSI)
100
AcDbLine
 10
0.8994372241434977
 20
1.430882085487697
 30
0.0
 11
0.2079372341434982
 21
1.430882085487698
 31
0.0
  0
LINE
  5
17E
330
37
100
AcDbEntity
  8
Visible (ANSI)
100
AcDbLine
 10
0.2079372341434982
 20
1.880882085487698
 30
0.0
 11
1.107937224143498
 21
1.880882085487698
 31
0.0
  0
LINE
  5
17F
330
37
100
AcDbEntity
  8
Visible (ANSI)
100
AcDbLine
 10
0.8994372241434977
 20
1.430882085487697
 30
0.0
 11
0.899437224143498
 21
1.530882085487697
 31
0.0
  0
ARC
  5
180
330
37
100
AcDbEntity
  8
Visible (ANSI)
100
AcDbCircle
 10
0.9736872241434982
 20
1.530882085487697
 30
0.0
 40
0.0742500000000001
100
AcDbArc
 50
0.0
 51
180.0
  0
LINE
  5
181
330
37
100
AcDbEntity
  8
Visible (ANSI)
100
AcDbLine
 10
1.047937224143497
 20
1.530882085487697
 30
0.0
 11
1.047937224143497
 21
1.452882085487698
 31
0.0
  0
LINE
  5
182
330
37
100
AcDbEntity
  8
Visible (ANSI)
100
AcDbLine
 10
1.047937224143497
 20
1.452882085487698
 30
0.0
 11
1.107937224143497
 21
1.452882085487698
 31
0.0
  0
LINE
  5
183
330
37
100
AcDbEntity
  8
Visible (ANSI)
100
AcDbLine
 10
1.107937224143498
 20
1.880882085487698
 30
0.0
 11
1.107937224143497
 21
1.452882085487698
 31
0.0
  0
LINE
  5
184
330
37
100
AcDbEntity
  8
Visible (ANSI)
100
AcDbLine
 10
0.2079372341434982
 20
1.880882085487698
 30
0.0
 11
0.2079372341434982
 21
1.430882085487698
 31
0.0
  0
LINE
  5
185
330
37
100
AcDbEntity
  8
Visible (ANSI)
100
AcDbLine
 10
1.107937224143497
 20
1.430882085487697
 30
0.0
 11
1.047937224143497
 21
1.430882085487697
 31
0.0
  0
LINE
  5
186
330
37
100
AcDbEntity
  8
Visible (ANSI)
100
AcDbLine
 10
1.047937224143497
 20
1.430882085487697
 30
0.0
 11
1.037637224143497
 21
1.430882085487697
 31
0.0
  0
LINE
  5
187
330
37
100
AcDbEntity
  8
Visible (ANSI)
100
AcDbLine
 10
1.107937224143497
 20
1.452882085487698
 30
0.0
 11
1.107937224143497
 21
1.430882085487698
 31
0.0
  0
LINE
  5
188
330
37
100
AcDbEntity
  8
Visible (ANSI)
100
AcDbLine
 10
0.9494372241434978
 20
1.430882085487697
 30
0.0
 11
0.9494372241434978
 21
1.449382085487697
 31
0.0
  0
LINE
  5
189
330
37
100
AcDbEntity
  8
Visible (ANSI)
100
AcDbLine
 10
0.9494372241434978
 20
1.449382085487697
 30
0.0
 11
0.9679372241434979
 21
1.449382085487697
 31
0.0
  0
LINE
  5
18A
330
37
100
AcDbEntity
  8
Visible (ANSI)
100
AcDbLine
 10
1.029437224143497
 20
1.449382085487697
 30
0.0
 11
1.047937224143497
 21
1.449382085487697
 31
0.0
  0
LINE
  5
18B
330
37
100
AcDbEntity
  8
Visible (ANSI)
100
AcDbLine
 10
0.9679372241434979
 20
1.449382085487697
 30
0.0
 11
0.9679372241434979
 21
1.430882085487697
 31
0.0
  0
LINE
  5
18C
330
37
100
AcDbEntity
  8
Visible (ANSI)
100
AcDbLine
 10
0.9679372241434979
 20
1.430882085487697
 30
0.0
 11
0.949437224143498
 21
1.430882085487697
 31
0.0
  0
LINE
  5
18D
330
37
100
AcDbEntity
  8
Visible (ANSI)
100
AcDbLine
 10
1.037637224143497
 20
1.430882085487697
 30
0.0
 11
1.037637224143497
 21
1.439382085487697
 31
0.0
  0
LINE
  5
18E
330
37
100
AcDbEntity
  8
Visible (ANSI)
100
AcDbLine
 10
1.037637224143497
 20
1.439382085487697
 30
0.0
 11
1.032937224143497
 21
1.439382085487697
 31
0.0
  0
ARC
  5
18F
330
37
100
AcDbEntity
  8
Visible (ANSI)
100
AcDbCircle
 10
1.032937224143497
 20
1.442882085487697
 30
0.0
 40
0.0035
100
AcDbArc
 50
180.0
 51
270.0
  0
LINE
  5
190
330
37
100
AcDbEntity
  8
Visible (ANSI)
100
AcDbLine
 10
1.029437224143497
 20
1.442882085487697
 30
0.0
 11
1.029437224143497
 21
1.530882085487697
 31
0.0
  0
ARC
  5
191
330
37
100
AcDbEntity
  8
Visible (ANSI)
100
AcDbCircle
 10
0.973687224143498
 20
1.530882085487697
 30
0.0
 40
0.0557500000000001
100
AcDbArc
 50
0.0
 51
180.0
  0
LINE
  5
192
330
37
100
AcDbEntity
  8
Visible (ANSI)
100
AcDbLine
 10
0.9179372241434979
 20
1.530882085487697
 30
0.0
 11
0.9179372241434977
 21
1.430882085487697
 31
0.0
  0
LINE
  5
193
330
37
100
AcDbEntity
  8
Visible (ANSI)
100
AcDbLine
 10
1.047937224143497
 20
1.430882085487698
 30
0.0
 11
1.047937224143497
 21
1.452882085487698
 31
0.0
  0
LINE
  5
194
330
37
100
AcDbEntity
  8
Visible (ANSI)
100
AcDbLine
 10
1.037637224143497
 20
1.430882085487697
 30
0.0
 11
0.9679372241434979
 21
1.430882085487697
 31
0.0
  0
CIRCLE
  5
195
330
37
100
AcDbEntity
  8
Visible (ANSI)
100
AcDbCircle
 10
0.3225766341434979
 20
1.529877035487698
 30
0.0
 40
0.0002144103529895
  0
CIRCLE
  5
196
330
37
100
AcDbEntity
  8
Visible (ANSI)
100
AcDbCircle
 10
0.3525766341434981
 20
1.680882085487698
 30
0.0
 40
0.046875
  0
CIRCLE
  5
197
330
37
100
AcDbEntity
  8
Hidden Narrow (ANSI)
 48
1.066956043243408
100
AcDbCircle
 10
0.7685563341434981
 20
1.770882085487697
 30
0.0
 40
0.05265
  0
CIRCLE
  5
198
330
37
100
AcDbEntity
  8
Hidden Narrow (ANSI)
 48
1.066956043243408
100
AcDbCircle
 10
0.3225766341434979
 20
1.529877035487698
 30
0.0
 40
0.05265
  0
INSERT
  5
1BF
330
37
100
AcDbEntity
  8
Dimension (ANSI)
100
AcDbBlockReference
  2
Origin Indicator Symbol2
 10
0.0
 20
0.0
 30
0.0
 41
0.25
 42
0.25
 43
0.25
  0
MTEXT
  5
1C0
330
37
100
AcDbEntity
  8
Symbol (ANSI)
100
AcDbMText
 10
2.470476484546765
 20
0.1483079986831451
 30
0.0
 40
0.0300000003707691
 41
0.0
 71
     1
 72
     1
  1
{B1}
  7
Note Text (ANSI)
 73
     1
 44
1.0
1001
ACAD
1000
MTEXTBEGIN
1070
    73
1070
     1
1070
    44
1040
1.0
1070
    74
1070
     0
1000
MTEXTEND
  0
INSERT
  5
240
330
37
100
AcDbEntity
  8
Symbol (ANSI)
100
AcDbBlockReference
  2
Hole Table1
 10
0.0
 20
0.0
 30
0.0
 41
0.25
 42
0.25
 43
0.25
  0
INSERT
  5
252
330
37
100
AcDbEntity
  8
Symbol (ANSI)
100
AcDbBlockReference
  2
Leader Text1
 10
0.0
 20
0.0
 30
0.0
 41
0.25
 42
0.25
 43
0.25
  0
INSERT
  5
264
330
37
100
AcDbEntity
  8
Symbol (ANSI)
100
AcDbBlockReference
  2
Leader Text2
 10
0.0
 20
0.0
 30
0.0
 41
0.25
 42
0.25
 43
0.25
  0
INSERT
  5
276
330
37
100
AcDbEntity
  8
Symbol (ANSI)
100
AcDbBlockReference
  2
Leader Text3
 10
0.0
 20
0.0
 30
0.0
 41
0.25
 42
0.25
 43
0.25
  0
INSERT
  5
288
330
37
100
AcDbEntity
  8
Symbol (ANSI)
100
AcDbBlockReference
  2
Leader Text4
 10
0.0
 20
0.0
 30
0.0
 41
0.25
 42
0.25
 43
0.25
  0
INSERT
  5
29A
330
37
100
AcDbEntity
  8
Symbol (ANSI)
100
AcDbBlockReference
  2
Leader Text5
 10
0.0
 20
0.0
 30
0.0
 41
0.25
 42
0.25
 43
0.25
  0
INSERT
  5
2AC
330
37
100
AcDbEntity
  8
Symbol (ANSI)
100
AcDbBlockReference
  2
Leader Text6
 10
0.0
 20
0.0
 30
0.0
 41
0.25
 42
0.25
 43
0.25
  0
INSERT
  5
33C
330
37
100
AcDbEntity
  8
Symbol (ANSI)
100
AcDbBlockReference
  2
Hole Table2
 10
0.0
 20
0.0
 30
0.0
 41
0.25
 42
0.25
 43
0.25
  0
INSERT
  5
34E
330
37
100
AcDbEntity
  8
Symbol (ANSI)
100
AcDbBlockReference
  2
Leader Text7
 10
0.0
 20
0.0
 30
0.0
 41
0.25
 42
0.25
 43
0.25
  0
INSERT
  5
360
330
37
100
AcDbEntity
  8
Symbol (ANSI)
100
AcDbBlockReference
  2
Leader Text8
 10
0.0
 20
0.0
 30
0.0
 41
0.25
 42
0.25
 43
0.25
  0
INSERT
  5
372
330
37
100
AcDbEntity
  8
Symbol (ANSI)
100
AcDbBlockReference
  2
Leader Text9
 10
0.0
 20
0.0
 30
0.0
 41
0.25
 42
0.25
 43
0.25
  0
INSERT
  5
384
330
37
100
AcDbEntity
  8
Symbol (ANSI)
100
AcDbBlockReference
  2
Leader Text10
 10
0.0
 20
0.0
 30
0.0
 41
0.25
 42
0.25
 43
0.25
  0
INSERT
  5
396
330
37
100
AcDbEntity
  8
Symbol (ANSI)
100
AcDbBlockReference
  2
Leader Text11
 10
0.0
 20
0.0
 30
0.0
 41
0.25
 42
0.25
 43
0.25
  0
INSERT
  5
3A8
330
37
100
AcDbEntity
  8
Symbol (ANSI)
100
AcDbBlockReference
  2
Leader Text12
 10
0.0
 20
0.0
 30
0.0
 41
0.25
 42
0.25
 43
0.25
  0
MTEXT
  5
3A9
330
37
100
AcDbEntity
  8
Symbol (ANSI)
100
AcDbMText
 10
0.8031694494398724
 20
1.995556867542791
 30
0.0
 40
0.0300000003707691
 41
0.3892179971178491
 71
     1
 72
     1
  1
{2 OF 3 (BLOCK1)}
  7
Note Text (ANSI)
 73
     1
 44
1.0
1001
ACAD
1000
MTEXTBEGIN
1070
    73
1070
     1
1070
    44
1040
1.0
1070
    74
1070
     0
1000
MTEXTEND
  0
CIRCLE
  5
3AA
330
37
100
AcDbEntity
  8
Visible (ANSI)
100
AcDbCircle
 10
0.7681348060191905
 20
0.4820477082318402
 30
0.0
 40
0.0445
  0
CIRCLE
  5
3AB
330
37
100
AcDbEntity
  8
Visible (ANSI)
100
AcDbCircle
 10
0.7681348060191905
 20
0.4820477082318393
 30
0.0
 40
0.0475000000000001
  0
CIRCLE
  5
3AC
330
37
100
AcDbEntity
  8
Visible (ANSI)
100
AcDbCircle
 10
0.5701449076191904
 20
0.4820477082318393
 30
0.0
 40
0.0475000000000001
  0
CIRCLE
  5
3AD
330
37
100
AcDbEntity
  8
Visible (ANSI)
100
AcDbCircle
 10
0.5701449076191904
 20
0.4820477082318402
 30
0.0
 40
0.0445
  0
LINE
  5
3AE
330
37
100
AcDbEntity
  8
Visible (ANSI)
100
AcDbLine
 10
0.6598908568191904
 20
0.5625426574318393
 30
0.0
 11
0.6598908568191904
 21
0.5810426574318394
 31
0.0
  0
LINE
  5
3AF
330
37
100
AcDbEntity
  8
Visible (ANSI)
100
AcDbLine
 10
0.2075156568191906
 20
0.5810426574318392
 30
0.0
 11
0.6598908568191904
 21
0.5810426574318394
 31
0.0
  0
LINE
  5
3B0
330
37
100
AcDbEntity
  8
Visible (ANSI)
100
AcDbLine
 10
0.2075156568191906
 20
0.1310426574318392
 30
0.0
 11
0.2075156568191906
 21
0.5810426574318392
 31
0.0
  0
LINE
  5
3B1
330
37
100
AcDbEntity
  8
Visible (ANSI)
100
AcDbLine
 10
1.10751564681919
 20
0.1310426574318393
 30
0.0
 11
0.2075156568191906
 21
0.1310426574318392
 31
0.0
  0
LINE
  5
3B2
330
37
100
AcDbEntity
  8
Visible (ANSI)
100
AcDbLine
 10
1.10751564681919
 20
0.1310426574318393
 30
0.0
 11
1.10751564681919
 21
0.5810426574318393
 31
0.0
  0
LINE
  5
3B3
330
37
100
AcDbEntity
  8
Visible (ANSI)
100
AcDbLine
 10
0.6783888568191906
 20
0.5810426574318394
 30
0.0
 11
1.10751564681919
 21
0.5810426574318394
 31
0.0
  0
LINE
  5
3B4
330
37
100
AcDbEntity
  8
Visible (ANSI)
100
AcDbLine
 10
0.6783888568191906
 20
0.5810426574318394
 30
0.0
 11
0.6783888568191906
 21
0.5625426574318393
 31
0.0
  0
LINE
  5
3B5
330
37
100
AcDbEntity
  8
Visible (ANSI)
100
AcDbLine
 10
0.6783888568191906
 20
0.5625426574318393
 30
0.0
 11
0.6598908568191904
 21
0.5625426574318393
 31
0.0
  0
CIRCLE
  5
3B6
330
37
100
AcDbEntity
  8
Visible (ANSI)
100
AcDbCircle
 10
0.6691398568191906
 20
0.4410426574318393
 30
0.0
 40
0.03125
  0
LINE
  5
3B7
330
37
100
AcDbEntity
  8
Visible (ANSI)
100
AcDbLine
 10
0.6598908568191904
 20
0.5810426574319031
 30
0.0
 11
0.6783888568191906
 21
0.5810426574319145
 31
0.0
  0
CIRCLE
  5
3B8
330
37
100
AcDbEntity
  8
Visible (ANSI)
100
AcDbCircle
 10
0.6691398568191906
 20
0.4410426574319016
 30
0.0
 40
0.0307500000000002
  0
INSERT
  5
3DF
330
37
100
AcDbEntity
  8
Dimension (ANSI)
100
AcDbBlockReference
  2
Origin Indicator Symbol3
 10
0.0
 20
0.0
 30
0.0
 41
0.25
 42
0.25
 43
0.25
  0
INSERT
  5
40D
330
37
100
AcDbEntity
  8
Symbol (ANSI)
100
AcDbBlockReference
  2
Hole Table3
 10
0.0
 20
0.0
 30
0.0
 41
0.25
 42
0.25
 43
0.25
  0
INSERT
  5
41F
330
37
100
AcDbEntity
  8
Symbol (ANSI)
100
AcDbBlockReference
  2
Leader Text13
 10
0.0
 20
0.0
 30
0.0
 41
0.25
 42
0.25
 43
0.25
  0
ENDSEC
  0
SECTION
  2
OBJECTS
  0
DICTIONARY
  5
C
330
0
100
AcDbDictionary
281
     1
  3
ACAD_COLOR
350
30
  3
ACAD_GROUP
350
D
  3
ACAD_LAYOUT
350
2F
  3
ACAD_MATERIAL
350
10
  3
ACAD_MLINESTYLE
350
2C
  3
ACAD_PLOTSETTINGS
350
2E
  3
ACAD_PLOTSTYLENAME
350
E
  3
ACAD_TABLESTYLE
350
31
  3
ACAD_VISUALSTYLE
350
14
  3
AcDbVariableDictionary
350
420
  3
DWGPROPS
350
426
  0
DICTIONARY
  5
30
102
{ACAD_REACTORS
330
C
102
}
330
C
100
AcDbDictionary
281
     1
  0
DICTIONARY
  5
D
102
{ACAD_REACTORS
330
C
102
}
330
C
100
AcDbDictionary
281
     1
  0
DICTIONARY
  5
2F
102
{ACAD_REACTORS
330
C
102
}
330
C
100
AcDbDictionary
281
     1
  3
Layout1
350
36
  3
Layout2
350
3E
  3
Model
350
3A
  0
DICTIONARY
  5
10
102
{ACAD_REACTORS
330
C
102
}
330
C
100
AcDbDictionary
281
     1
  3
ByBlock
350
12
  3
ByLayer
350
11
  3
Global
350
13
  0
DICTIONARY
  5
2C
102
{ACAD_REACTORS
330
C
102
}
330
C
100
AcDbDictionary
281
     1
  3
Standard
350
2D
  0
DICTIONARY
  5
2E
102
{ACAD_REACTORS
330
C
102
}
330
C
100
AcDbDictionary
281
     1
  0
ACDBDICTIONARYWDFLT
  5
E
102
{ACAD_REACTORS
330
C
102
}
330
C
100
AcDbDictionary
281
     1
  3
Normal
350
F
100
AcDbDictionaryWithDefault
340
F
  0
DICTIONARY
  5
31
102
{ACAD_REACTORS
330
C
102
}
330
C
100
AcDbDictionary
281
     1
  3
Standard
350
32
  0
DICTIONARY
  5
14
102
{ACAD_REACTORS
330
C
102
}
330
C
100
AcDbDictionary
281
     1
  3
2dWireframe
350
1A
  3
3D Hidden
350
1C
  3
3dWireframe
350
1B
  3
Basic
350
19
  3
Brighten
350
20
  3
ColorChange
350
24
  3
Conceptual
350
1D
  3
Dim
350
1F
  3
Facepattern
350
23
  3
Flat
350
15
  3
FlatWithEdges
350
16
  3
Gouraud
350
17
  3
GouraudWithEdges
350
18
  3
Linepattern
350
22
  3
Realistic
350
1E
  3
Thicken
350
21
  0
DICTIONARY
  5
420
102
{ACAD_REACTORS
330
C
102
}
330
C
100
AcDbDictionary
281
     1
  3
CTABLESTYLE
350
421
  3
DIMASSOC
350
425
  3
HIDETEXT
350
424
  3
INDEXCTL
350
423
  3
SORTENTS
350
422
  0
XRECORD
  5
426
102
{ACAD_REACTORS
330
C
102
}
330
C
100
AcDbXrecord
280
     1
  1
DWGPROPS COOKIE
  2

  3

  4
D Chow
  6

  7

  8

  9

300
Manager=
301
Company=RADIO ASTRONOMY LABORATORY
302
Category=
303
Part Number=Block1-V61
304
Description=
305
Project=
306
Designer=D Chow
307
Engineer=
308
Authority=
309
Cost Center=
 40
0.0000291203703704
 41
2454846.694486574
 42
2454846.694486574
  1

 90
       17
300
Vendor=
300
User Status=
300
Design Status=WorkInProgress
300
Checked by=
300
Date Checked=01/14/2009
300
Engr Approved by=
300
Mfg Approved by=
  0
LAYOUT
  5
36
102
{ACAD_XDICTIONARY
360
42F
102
}
102
{ACAD_REACTORS
330
2F
102
}
330
2F
100
AcDbPlotSettings
  1

  2

  4

  6

 40
0.0
 41
0.0
 42
0.0
 43
0.0
 44
0.0
 45
0.0
 46
0.0
 47
0.0
 48
0.0
 49
0.0
140
0.0
141
0.0
142
1.0
143
1.0
 70
   688
 72
     0
 73
     0
 74
     5
  7

 75
    16
147
1.0
148
0.0
149
0.0
100
AcDbLayout
  1
Layout1
 70
     1
 71
     1
 10
0.0
 20
0.0
 11
12.0
 21
9.0
 12
0.0
 22
0.0
 32
0.0
 14
0.0
 24
0.0
 34
0.0
 15
0.0
 25
0.0
 35
0.0
146
0.0
 13
0.0
 23
0.0
 33
0.0
 16
1.0
 26
0.0
 36
0.0
 17
0.0
 27
1.0
 37
0.0
 76
     0
330
33
  0
LAYOUT
  5
3E
102
{ACAD_XDICTIONARY
360
433
102
}
102
{ACAD_REACTORS
330
2F
102
}
330
2F
100
AcDbPlotSettings
  1

  2

  4

  6

 40
0.0
 41
0.0
 42
0.0
 43
0.0
 44
0.0
 45
0.0
 46
0.0
 47
0.0
 48
0.0
 49
0.0
140
0.0
141
0.0
142
1.0
143
1.0
 70
   688
 72
     0
 73
     0
 74
     5
  7

 75
    16
147
1.0
148
0.0
149
0.0
100
AcDbLayout
  1
Layout2
 70
     1
 71
     2
 10
0.0
 20
0.0
 11
12.0
 21
9.0
 12
0.0
 22
0.0
 32
0.0
 14
0.0
 24
0.0
 34
0.0
 15
0.0
 25
0.0
 35
0.0
146
0.0
 13
0.0
 23
0.0
 33
0.0
 16
1.0
 26
0.0
 36
0.0
 17
0.0
 27
1.0
 37
0.0
 76
     0
330
3B
  0
LAYOUT
  5
3A
102
{ACAD_XDICTIONARY
360
431
102
}
102
{ACAD_REACTORS
330
2F
102
}
330
2F
100
AcDbPlotSettings
  1

  2

  4

  6

 40
0.0
 41
0.0
 42
0.0
 43
0.0
 44
0.0
 45
0.0
 46
0.0
 47
0.0
 48
0.0
 49
0.0
140
0.0
141
0.0
142
1.0
143
1.0
 70
  1712
 72
     0
 73
     0
 74
     0
  7

 75
     0
147
1.0
148
0.0
149
0.0
100
AcDbLayout
  1
Model
 70
     1
 71
     0
 10
0.0
 20
0.0
 11
12.0
 21
9.0
 12
0.0
 22
0.0
 32
0.0
 14
0.0
 24
0.0
 34
0.0
 15
0.0
 25
0.0
 35
0.0
146
0.0
 13
0.0
 23
0.0
 33
0.0
 16
1.0
 26
0.0
 36
0.0
 17
0.0
 27
1.0
 37
0.0
 76
     0
330
37
  0
MATERIAL
  5
12
102
{ACAD_XDICTIONARY
360
429
102
}
102
{ACAD_REACTORS
330
10
102
}
330
10
100
AcDbMaterial
  1
ByBlock
  0
MATERIAL
  5
11
102
{ACAD_XDICTIONARY
360
427
102
}
102
{ACAD_REACTORS
330
10
102
}
330
10
100
AcDbMaterial
  1
ByLayer
  0
MATERIAL
  5
13
102
{ACAD_XDICTIONARY
360
42B
102
}
102
{ACAD_REACTORS
330
10
102
}
330
10
100
AcDbMaterial
  1
Global
  0
MLINESTYLE
  5
2D
102
{ACAD_REACTORS
330
2C
102
}
330
2C
100
AcDbMlineStyle
  2
STANDARD
 70
     0
  3

 62
   256
 51
90.0
 52
90.0
 71
     2
 49
0.5
 62
   256
  6
BYLAYER
 49
-0.5
 62
   256
  6
BYLAYER
  0
ACDBPLACEHOLDER
  5
F
102
{ACAD_REACTORS
330
E
102
}
330
E
  0
TABLESTYLE
  5
32
102
{ACAD_XDICTIONARY
360
42D
102
}
102
{ACAD_REACTORS
330
31
102
}
330
31
100
AcDbTableStyle
  3
Standard
 70
     0
 71
     0
 40
0.06
 41
0.06
280
     0
281
     0
  7
Standard
140
0.18
170
     2
 62
     0
 63
     7
283
     0
274
    -2
284
     1
 64
     0
275
    -2
285
     1
 65
     0
276
    -2
286
     1
 66
     0
277
    -2
287
     1
 67
     0
278
    -2
288
     1
 68
     0
279
    -2
289
     1
 69
     0
  7
Standard
140
0.25
170
     5
 62
     0
 63
     7
283
     0
274
    -2
284
     1
 64
     0
275
    -2
285
     1
 65
     0
276
    -2
286
     1
 66
     0
277
    -2
287
     1
 67
     0
278
    -2
288
     1
 68
     0
279
    -2
289
     1
 69
     0
  7
Standard
140
0.18
170
     5
 62
     0
 63
     7
283
     0
274
    -2
284
     1
 64
     0
275
    -2
285
     1
 65
     0
276
    -2
286
     1
 66
     0
277
    -2
287
     1
 67
     0
278
    -2
288
     1
 68
     0
279
    -2
289
     1
 69
     0
  0
VISUALSTYLE
  5
1A
102
{ACAD_REACTORS
330
14
102
}
330
14
100
AcDbVisualStyle
  2
2dWireframe
 70
     4
 71
     0
 72
     2
 73
     0
 90
        0
 40
-0.6
 41
-30.0
 62
     5
 63
     7
 74
     1
 91
        4
 64
     7
 65
   257
 75
     1
175
     1
 42
1.0
 92
        0
 66
   257
 43
1.0
 76
     1
 77
     6
 78
     2
 67
     7
 79
     5
170
     0
171
     0
290
     0
174
     0
 93
        1
 44
0.0
173
     0
291
     0
 45
0.0
1001
ACAD
1000
AcDbSavedByObjectVersion
1070
     0
  0
VISUALSTYLE
  5
1C
102
{ACAD_REACTORS
330
14
102
}
330
14
100
AcDbVisualStyle
  2
3D Hidden
 70
     6
 71
     1
 72
     2
 73
     2
 90
        0
 40
-0.6
 41
-30.0
 62
     5
 63
     7
 74
     2
 91
        2
 64
     7
 65
   257
 75
     2
175
     1
 42
40.0
 92
        0
 66
   257
 43
1.0
 76
     1
 77
     6
 78
     2
 67
     7
 79
     3
170
     0
171
     0
290
     0
174
     0
 93
        1
 44
0.0
173
     0
291
     0
 45
0.0
1001
ACAD
1000
AcDbSavedByObjectVersion
1070
     0
  0
VISUALSTYLE
  5
1B
102
{ACAD_REACTORS
330
14
102
}
330
14
100
AcDbVisualStyle
  2
3dWireframe
 70
     5
 71
     0
 72
     2
 73
     0
 90
        0
 40
-0.6
 41
-30.0
 62
     5
 63
     7
 74
     1
 91
        4
 64
     7
 65
   257
 75
     1
175
     1
 42
1.0
 92
        0
 66
   257
 43
1.0
 76
     1
 77
     6
 78
     2
 67
     7
 79
     5
170
     0
171
     0
290
     0
174
     0
 93
        1
 44
0.0
173
     0
291
     0
 45
0.0
1001
ACAD
1000
AcDbSavedByObjectVersion
1070
     0
  0
VISUALSTYLE
  5
19
102
{ACAD_REACTORS
330
14
102
}
330
14
100
AcDbVisualStyle
  2
Basic
 70
     7
 71
     1
 72
     0
 73
     1
 90
        0
 40
-0.6
 41
-30.0
 62
     5
 63
     7
 74
     0
 91
        4
 64
     7
 65
   257
 75
     1
175
     1
 42
1.0
 92
        8
 66
     7
 43
1.0
 76
     1
 77
     6
 78
     2
 67
     7
 79
     5
170
     0
171
     0
290
     0
174
     0
 93
        1
 44
0.0
173
     0
291
     1
 45
0.0
1001
ACAD
1000
AcDbSavedByObjectVersion
1070
     0
  0
VISUALSTYLE
  5
20
102
{ACAD_REACTORS
330
14
102
}
330
14
100
AcDbVisualStyle
  2
Brighten
 70
    12
 71
     2
 72
     2
 73
     0
 90
        0
 40
-0.6
 41
-30.0
 62
     5
 63
     7
 74
     1
 91
        4
 64
     7
 65
   257
 75
     1
175
     1
 42
1.0
 92
        8
 66
     7
 43
1.0
 76
     1
 77
     6
 78
     2
 67
     7
 79
     5
170
     0
171
     0
290
     0
174
     0
 93
        1
 44
50.0
173
     0
291
     1
 45
0.0
1001
ACAD
1000
AcDbSavedByObjectVersion
1070
     0
  0
VISUALSTYLE
  5
24
102
{ACAD_REACTORS
330
14
102
}
330
14
100
AcDbVisualStyle
  2
ColorChange
 70
    16
 71
     2
 72
     2
 73
     3
 90
        0
 40
-0.6
 41
-30.0
 62
     5
 63
     8
 74
     1
 91
        4
 64
     7
 65
   257
 75
     1
175
     1
 42
1.0
 92
        8
 66
     8
 43
1.0
 76
     1
 77
     6
 78
     2
 67
     7
 79
     5
170
     0
171
     0
290
     0
174
     0
 93
        1
 44
0.0
173
     0
291
     1
 45
0.0
1001
ACAD
1000
AcDbSavedByObjectVersion
1070
     0
  0
VISUALSTYLE
  5
1D
102
{ACAD_REACTORS
330
14
102
}
330
14
100
AcDbVisualStyle
  2
Conceptual
 70
     9
 71
     3
 72
     2
 73
     0
 90
        0
 40
-0.6
 41
-30.0
 62
     5
 63
     7
 74
     2
 91
        2
 64
     7
 65
   257
 75
     1
175
     1
 42
40.0
 92
        8
 66
     7
 43
1.0
 76
     1
 77
     6
 78
     2
 67
     7
 79
     3
170
     0
171
     0
290
     0
174
     0
 93
        1
 44
0.0
173
     0
291
     0
 45
0.0
1001
ACAD
1000
AcDbSavedByObjectVersion
1070
     0
  0
VISUALSTYLE
  5
1F
102
{ACAD_REACTORS
330
14
102
}
330
14
100
AcDbVisualStyle
  2
Dim
 70
    11
 71
     2
 72
     2
 73
     0
 90
        0
 40
-0.6
 41
-30.0
 62
     5
 63
     7
 74
     1
 91
        4
 64
     7
 65
   257
 75
     1
175
     1
 42
1.0
 92
        8
 66
     7
 43
1.0
 76
     1
 77
     6
 78
     2
 67
     7
 79
     5
170
     0
171
     0
290
     0
174
     0
 93
        1
 44
-50.0
173
     0
291
     1
 45
0.0
1001
ACAD
1000
AcDbSavedByObjectVersion
1070
     0
  0
VISUALSTYLE
  5
23
102
{ACAD_REACTORS
330
14
102
}
330
14
100
AcDbVisualStyle
  2
Facepattern
 70
    15
 71
     2
 72
     2
 73
     0
 90
        0
 40
-0.6
 41
-30.0
 62
     5
 63
     7
 74
     1
 91
        4
 64
     7
 65
   257
 75
     1
175
     1
 42
1.0
 92
        8
 66
     7
 43
1.0
 76
     1
 77
     6
 78
     2
 67
     7
 79
     5
170
     0
171
     0
290
     0
174
     0
 93
        1
 44
0.0
173
     0
291
     1
 45
0.0
1001
ACAD
1000
AcDbSavedByObjectVersion
1070
     0
  0
VISUALSTYLE
  5
15
102
{ACAD_REACTORS
330
14
102
}
330
14
100
AcDbVisualStyle
  2
Flat
 70
     0
 71
     2
 72
     1
 73
     1
 90
        2
 40
-0.6
 41
30.0
 62
     5
 63
     7
 74
     0
 91
        4
 64
     7
 65
   257
 75
     1
175
     1
 42
1.0
 92
        8
 66
     7
 43
1.0
 76
     1
 77
     6
 78
     2
 67
     7
 79
     5
170
     0
171
     0
290
     0
174
     0
 93
       13
 44
0.0
173
     0
291
     1
 45
0.0
1001
ACAD
1000
AcDbSavedByObjectVersion
1070
     0
  0
VISUALSTYLE
  5
16
102
{ACAD_REACTORS
330
14
102
}
330
14
100
AcDbVisualStyle
  2
FlatWithEdges
 70
     1
 71
     2
 72
     1
 73
     1
 90
        2
 40
-0.6
 41
30.0
 62
     5
 63
     7
 74
     1
 91
        4
 64
     7
 65
   257
 75
     1
175
     1
 42
1.0
 92
        0
 66
   257
 43
1.0
 76
     1
 77
     6
 78
     2
 67
     7
 79
     5
170
     0
171
     0
290
     0
174
     0
 93
       13
 44
0.0
173
     0
291
     1
 45
0.0
1001
ACAD
1000
AcDbSavedByObjectVersion
1070
     0
  0
VISUALSTYLE
  5
17
102
{ACAD_REACTORS
330
14
102
}
330
14
100
AcDbVisualStyle
  2
Gouraud
 70
     2
 71
     2
 72
     2
 73
     1
 90
        2
 40
-0.6
 41
30.0
 62
     5
 63
     7
 74
     0
 91
        4
 64
     7
 65
   257
 75
     1
175
     1
 42
1.0
 92
        0
 66
     7
 43
1.0
 76
     1
 77
     6
 78
     2
 67
     7
 79
     5
170
     0
171
     0
290
     0
174
     0
 93
       13
 44
0.0
173
     0
291
     1
 45
0.0
1001
ACAD
1000
AcDbSavedByObjectVersion
1070
     0
  0
VISUALSTYLE
  5
18
102
{ACAD_REACTORS
330
14
102
}
330
14
100
AcDbVisualStyle
  2
GouraudWithEdges
 70
     3
 71
     2
 72
     2
 73
     1
 90
        2
 40
-0.6
 41
30.0
 62
     5
 63
     7
 74
     1
 91
        4
 64
     7
 65
   257
 75
     1
175
     1
 42
1.0
 92
        0
 66
   257
 43
1.0
 76
     1
 77
     6
 78
     2
 67
     7
 79
     5
170
     0
171
     0
290
     0
174
     0
 93
       13
 44
0.0
173
     0
291
     1
 45
0.0
1001
ACAD
1000
AcDbSavedByObjectVersion
1070
     0
  0
VISUALSTYLE
  5
22
102
{ACAD_REACTORS
330
14
102
}
330
14
100
AcDbVisualStyle
  2
Linepattern
 70
    14
 71
     2
 72
     2
 73
     0
 90
        0
 40
-0.6
 41
-30.0
 62
     5
 63
     7
 74
     1
 91
        4
 64
     7
 65
   257
 75
     7
175
     7
 42
1.0
 92
        8
 66
     7
 43
1.0
 76
     1
 77
     6
 78
     2
 67
     7
 79
     5
170
     0
171
     0
290
     0
174
     0
 93
        1
 44
0.0
173
     0
291
     1
 45
0.0
1001
ACAD
1000
AcDbSavedByObjectVersion
1070
     0
  0
VISUALSTYLE
  5
1E
102
{ACAD_REACTORS
330
14
102
}
330
14
100
AcDbVisualStyle
  2
Realistic
 70
     8
 71
     2
 72
     2
 73
     0
 90
        0
 40
-0.6
 41
-30.0
 62
     5
 63
     7
 74
     1
 91
        0
 64
     7
 65
   257
 75
     1
175
     1
 42
1.0
 92
        8
 66
     8
 43
1.0
 76
     1
 77
     6
 78
     2
 67
     7
 79
     5
170
     0
171
     0
290
     0
174
     0
 93
       13
 44
0.0
173
     0
291
     0
 45
0.0
1001
ACAD
1000
AcDbSavedByObjectVersion
1070
     0
  0
VISUALSTYLE
  5
21
102
{ACAD_REACTORS
330
14
102
}
330
14
100
AcDbVisualStyle
  2
Thicken
 70
    13
 71
     2
 72
     2
 73
     0
 90
        0
 40
-0.6
 41
-30.0
 62
     5
 63
     7
 74
     1
 91
        4
 64
     7
 65
   257
 75
     1
175
     1
 42
1.0
 92
       12
 66
     7
 43
1.0
 76
     1
 77
     6
 78
     2
 67
     7
 79
     5
170
     0
171
     0
290
     0
174
     0
 93
        1
 44
0.0
173
     0
291
     1
 45
0.0
1001
ACAD
1000
AcDbSavedByObjectVersion
1070
     0
  0
DICTIONARYVAR
  5
421
102
{ACAD_REACTORS
330
420
102
}
330
420
100
DictionaryVariables
280
     0
  1
STANDARD
  0
DICTIONARYVAR
  5
425
102
{ACAD_REACTORS
330
420
102
}
330
420
100
DictionaryVariables
280
     0
  1
1
  0
DICTIONARYVAR
  5
424
102
{ACAD_REACTORS
330
420
102
}
330
420
100
DictionaryVariables
280
     0
  1
1
  0
DICTIONARYVAR
  5
423
102
{ACAD_REACTORS
330
420
102
}
330
420
100
DictionaryVariables
280
     0
  1
0
  0
DICTIONARYVAR
  5
422
102
{ACAD_REACTORS
330
420
102
}
330
420
100
DictionaryVariables
280
     0
  1
127
  0
DICTIONARY
  5
42F
330
36
100
AcDbDictionary
280
     1
281
     1
  3
ACAD_XREC_ROUNDTRIP
360
430
  0
DICTIONARY
  5
433
330
3E
100
AcDbDictionary
280
     1
281
     1
  3
ACAD_XREC_ROUNDTRIP
360
434
  0
DICTIONARY
  5
431
330
3A
100
AcDbDictionary
280
     1
281
     1
  3
ACAD_XREC_ROUNDTRIP
360
432
  0
DICTIONARY
  5
429
330
12
100
AcDbDictionary
280
     1
281
     1
  3
ACAD_XREC_ROUNDTRIP
360
42A
  0
DICTIONARY
  5
427
330
11
100
AcDbDictionary
280
     1
281
     1
  3
ACAD_XREC_ROUNDTRIP
360
428
  0
DICTIONARY
  5
42B
330
13
100
AcDbDictionary
280
     1
281
     1
  3
ACAD_XREC_ROUNDTRIP
360
42C
  0
DICTIONARY
  5
42D
330
32
100
AcDbDictionary
280
     1
281
     1
  3
ACAD_XREC_ROUNDTRIP
360
42E
  0
XRECORD
  5
430
102
{ACAD_REACTORS
330
42F
102
}
330
42F
100
AcDbXrecord
280
     1
102
SHADEPLOT
 70
     0
102
SHADEPLOTRESLEVEL
 70
     2
102
SHADEPLOTCUSTOMDPI
 70
   300
  0
XRECORD
  5
434
102
{ACAD_REACTORS
330
433
102
}
330
433
100
AcDbXrecord
280
     1
102
SHADEPLOT
 70
     0
102
SHADEPLOTRESLEVEL
 70
     2
102
SHADEPLOTCUSTOMDPI
 70
   300
  0
XRECORD
  5
432
102
{ACAD_REACTORS
330
431
102
}
330
431
100
AcDbXrecord
280
     1
102
SHADEPLOT
 70
     0
102
SHADEPLOTRESLEVEL
 70
     2
102
SHADEPLOTCUSTOMDPI
 70
   300
  0
XRECORD
  5
42A
102
{ACAD_REACTORS
330
429
102
}
330
429
100
AcDbXrecord
280
     1
102
MATERIAL
148
0.0
149
0.0
149
0.0
 93
        0
 94
       63
282
     0
 72
     1
 77
     1
171
     1
175
     1
179
     1
273
     0
  0
XRECORD
  5
428
102
{ACAD_REACTORS
330
427
102
}
330
427
100
AcDbXrecord
280
     1
102
MATERIAL
148
0.0
149
0.0
149
0.0
 93
        0
 94
       63
282
     0
 72
     1
 77
     1
171
     1
175
     1
179
     1
273
     0
  0
XRECORD
  5
42C
102
{ACAD_REACTORS
330
42B
102
}
330
42B
100
AcDbXrecord
280
     1
102
MATERIAL
148
0.0
149
0.0
149
0.0
 93
        0
 94
       63
282
     0
 72
     1
 77
     1
171
     1
175
     1
179
     1
273
     0
  0
XRECORD
  5
42E
102
{ACAD_REACTORS
330
42D
102
}
330
42D
100
AcDbXrecord
280
     1
102
ACAD_ROUNDTRIP_PRE2007_TABLESTYLE
 90
      512
 91
        0
  1

 92
      512
 93
        0
  2

 94
      512
 95
        0
  3

  0
ENDSEC
  0
EOF
