  0
SECTION
  2
HEADER
  9
$ACADVER
  1
AC1015
  9
$ACADMAINTVER
 70
    18
  9
$DWGCODEPAGE
  3
ANSI_1252
  9
$INSBASE
 10
0.0
 20
0.0
 30
0.0
  9
$EXTMIN
 10
0.0
 20
0.0
 30
0.0
  9
$EXTMAX
 10
2.75
 20
2.125
 30
0.0
  9
$LIMMIN
 10
0.0
 20
0.0
  9
$LIMMAX
 10
2.75
 20
2.125
  9
$ORTHOMODE
 70
     0
  9
$REGENMODE
 70
     1
  9
$FILLMODE
 70
     1
  9
$QTEXTMODE
 70
     0
  9
$MIRRTEXT
 70
     0
  9
$LTSCALE
 40
0.25
  9
$ATTMODE
 70
     1
  9
$TEXTSIZE
 40
0.2
  9
$TRACEWID
 40
0.05
  9
$TEXTSTYLE
  7
Standard
  9
$CLAYER
  8
0
  9
$CELTYPE
  6
ByLayer
  9
$CECOLOR
 62
   256
  9
$CELTSCALE
 40
1.0
  9
$DISPSILH
 70
     0
  9
$DIMSCALE
 40
1.0
  9
$DIMASZ
 40
0.0708661417322835
  9
$DIMEXO
 40
0.0625
  9
$DIMDLI
 40
0.38
  9
$DIMRND
 40
0.0
  9
$DIMDLE
 40
0.0
  9
$DIMEXE
 40
0.18
  9
$DIMTP
 40
0.0
  9
$DIMTM
 40
0.0
  9
$DIMTXT
 40
0.3048000037670135
  9
$DIMCEN
 40
0.09
  9
$DIMTSZ
 40
0.0
  9
$DIMTOL
 70
     0
  9
$DIMLIM
 70
     0
  9
$DIMTIH
 70
     1
  9
$DIMTOH
 70
     1
  9
$DIMSE1
 70
     0
  9
$DIMSE2
 70
     0
  9
$DIMTAD
 70
     0
  9
$DIMZIN
 70
     0
  9
$DIMBLK
  1

  9
$DIMASO
 70
     1
  9
$DIMSHO
 70
     1
  9
$DIMPOST
  1

  9
$DIMAPOST
  1

  9
$DIMALT
 70
     0
  9
$DIMALTD
 70
     2
  9
$DIMALTF
 40
25.4
  9
$DIMLFAC
 40
1.0
  9
$DIMTOFL
 70
     0
  9
$DIMTVP
 40
0.0
  9
$DIMTIX
 70
     0
  9
$DIMSOXD
 70
     0
  9
$DIMSAH
 70
     0
  9
$DIMBLK1
  1

  9
$DIMBLK2
  1

  9
$DIMSTYLE
  2
Standard
  9
$DIMCLRD
 70
     0
  9
$DIMCLRE
 70
     0
  9
$DIMCLRT
 70
     0
  9
$DIMTFAC
 40
1.0
  9
$DIMGAP
 40
0.09
  9
$DIMJUST
 70
     0
  9
$DIMSD1
 70
     0
  9
$DIMSD2
 70
     0
  9
$DIMTOLJ
 70
     1
  9
$DIMTZIN
 70
     0
  9
$DIMALTZ
 70
     0
  9
$DIMALTTZ
 70
     0
  9
$DIMUPT
 70
     0
  9
$DIMDEC
 70
     4
  9
$DIMTDEC
 70
     4
  9
$DIMALTU
 70
     2
  9
$DIMALTTD
 70
     2
  9
$DIMTXSTY
  7
Standard
  9
$DIMAUNIT
 70
     0
  9
$DIMADEC
 70
     0
  9
$DIMALTRND
 40
0.0
  9
$DIMAZIN
 70
     0
  9
$DIMDSEP
 70
    46
  9
$DIMATFIT
 70
     3
  9
$DIMFRAC
 70
     0
  9
$DIMLDRBLK
  1

  9
$DIMLUNIT
 70
     2
  9
$DIMLWD
 70
    -2
  9
$DIMLWE
 70
    -2
  9
$DIMTMOVE
 70
     0
  9
$LUNITS
 70
     2
  9
$LUPREC
 70
     4
  9
$SKETCHINC
 40
0.1
  9
$FILLETRAD
 40
0.0
  9
$AUNITS
 70
     0
  9
$AUPREC
 70
     0
  9
$MENU
  1
.
  9
$ELEVATION
 40
0.0
  9
$PELEVATION
 40
0.0
  9
$THICKNESS
 40
0.0
  9
$LIMCHECK
 70
     0
  9
$CHAMFERA
 40
0.0
  9
$CHAMFERB
 40
0.0
  9
$CHAMFERC
 40
0.0
  9
$CHAMFERD
 40
0.0
  9
$SKPOLY
 70
     0
  9
$TDCREATE
 40
2454846.689035914
  9
$TDUCREATE
 40
2454847.022369248
  9
$TDUPDATE
 40
2454846.689035914
  9
$TDUUPDATE
 40
2454847.022369248
  9
$TDINDWG
 40
0.0000434028
  9
$TDUSRTIMER
 40
0.0000434028
  9
$USRTIMER
 70
     1
  9
$ANGBASE
 50
0.0
  9
$ANGDIR
 70
     0
  9
$PDMODE
 70
     0
  9
$PDSIZE
 40
0.0
  9
$PLINEWID
 40
0.0
  9
$SPLFRAME
 70
     0
  9
$SPLINETYPE
 70
     6
  9
$SPLINESEGS
 70
     8
  9
$HANDSEED
  5
3C5
  9
$SURFTAB1
 70
     6
  9
$SURFTAB2
 70
     6
  9
$SURFTYPE
 70
     6
  9
$SURFU
 70
     6
  9
$SURFV
 70
     6
  9
$UCSBASE
  2

  9
$UCSNAME
  2

  9
$UCSORG
 10
0.0
 20
0.0
 30
0.0
  9
$UCSXDIR
 10
1.0
 20
0.0
 30
0.0
  9
$UCSYDIR
 10
0.0
 20
1.0
 30
0.0
  9
$UCSORTHOREF
  2

  9
$UCSORTHOVIEW
 70
     0
  9
$UCSORGTOP
 10
0.0
 20
0.0
 30
0.0
  9
$UCSORGBOTTOM
 10
0.0
 20
0.0
 30
0.0
  9
$UCSORGLEFT
 10
0.0
 20
0.0
 30
0.0
  9
$UCSORGRIGHT
 10
0.0
 20
0.0
 30
0.0
  9
$UCSORGFRONT
 10
0.0
 20
0.0
 30
0.0
  9
$UCSORGBACK
 10
0.0
 20
0.0
 30
0.0
  9
$PUCSBASE
  2

  9
$PUCSNAME
  2

  9
$PUCSORG
 10
0.0
 20
0.0
 30
0.0
  9
$PUCSXDIR
 10
1.0
 20
0.0
 30
0.0
  9
$PUCSYDIR
 10
0.0
 20
1.0
 30
0.0
  9
$PUCSORTHOREF
  2

  9
$PUCSORTHOVIEW
 70
     0
  9
$PUCSORGTOP
 10
0.0
 20
0.0
 30
0.0
  9
$PUCSORGBOTTOM
 10
0.0
 20
0.0
 30
0.0
  9
$PUCSORGLEFT
 10
0.0
 20
0.0
 30
0.0
  9
$PUCSORGRIGHT
 10
0.0
 20
0.0
 30
0.0
  9
$PUCSORGFRONT
 10
0.0
 20
0.0
 30
0.0
  9
$PUCSORGBACK
 10
0.0
 20
0.0
 30
0.0
  9
$USERI1
 70
     0
  9
$USERI2
 70
     0
  9
$USERI3
 70
     0
  9
$USERI4
 70
     0
  9
$USERI5
 70
     0
  9
$USERR1
 40
0.0
  9
$USERR2
 40
0.0
  9
$USERR3
 40
0.0
  9
$USERR4
 40
0.0
  9
$USERR5
 40
0.0
  9
$WORLDVIEW
 70
     1
  9
$SHADEDGE
 70
     3
  9
$SHADEDIF
 70
    70
  9
$TILEMODE
 70
     1
  9
$MAXACTVP
 70
    64
  9
$PINSBASE
 10
0.0
 20
0.0
 30
0.0
  9
$PLIMCHECK
 70
     0
  9
$PEXTMIN
 10
0.0
 20
0.0
 30
0.0
  9
$PEXTMAX
 10
2.75
 20
2.125
 30
0.0
  9
$PLIMMIN
 10
0.0
 20
0.0
  9
$PLIMMAX
 10
2.75
 20
2.125
  9
$UNITMODE
 70
     0
  9
$VISRETAIN
 70
     1
  9
$PLINEGEN
 70
     0
  9
$PSLTSCALE
 70
     1
  9
$TREEDEPTH
 70
  3020
  9
$CMLSTYLE
  2
Standard
  9
$CMLJUST
 70
     0
  9
$CMLSCALE
 40
1.0
  9
$PROXYGRAPHICS
 70
     1
  9
$MEASUREMENT
 70
     0
  9
$CELWEIGHT
370
    -1
  9
$ENDCAPS
280
     0
  9
$JOINSTYLE
280
     0
  9
$LWDISPLAY
290
     0
  9
$INSUNITS
 70
     0
  9
$HYPERLINKBASE
  1

  9
$STYLESHEET
  1

  9
$XEDIT
290
     1
  9
$CEPSNTYPE
380
     0
  9
$PSTYLEMODE
290
     1
  9
$FINGERPRINTGUID
  2
{0F52B7B1-73DF-4CA7-A772-684E95757AD6}
  9
$VERSIONGUID
  2
{33A972F1-E86C-4803-8B05-7803651DE35C}
  9
$EXTNAMES
290
     1
  9
$PSVPSCALE
 40
0.0
  9
$OLESTARTUP
290
     0
  0
ENDSEC
  0
SECTION
  2
CLASSES
  0
CLASS
  1
ACDBDICTIONARYWDFLT
  2
AcDbDictionaryWithDefault
  3
ObjectDBX Classes
 90
        0
280
     0
281
     0
  0
CLASS
  1
MATERIAL
  2
AcDbMaterial
  3
ObjectDBX Classes
 90
     1024
280
     0
281
     0
  0
CLASS
  1
VISUALSTYLE
  2
AcDbVisualStyle
  3
ObjectDBX Classes
 90
     4095
280
     0
281
     0
  0
CLASS
  1
TABLESTYLE
  2
AcDbTableStyle
  3
ObjectDBX Classes
 90
     4095
280
     0
281
     0
  0
CLASS
  1
DICTIONARYVAR
  2
AcDbDictionaryVar
  3
ObjectDBX Classes
 90
        0
280
     0
281
     0
  0
CLASS
  1
ACDBPLACEHOLDER
  2
AcDbPlaceHolder
  3
ObjectDBX Classes
 90
        0
280
     0
281
     0
  0
CLASS
  1
LAYOUT
  2
AcDbLayout
  3
ObjectDBX Classes
 90
        0
280
     0
281
     0
  0
ENDSEC
  0
SECTION
  2
TABLES
  0
TABLE
  2
VPORT
  5
8
330
0
100
AcDbSymbolTable
 70
     1
  0
VPORT
  5
28
330
8
100
AcDbSymbolTableRecord
100
AcDbViewportTableRecord
  2
*Active
 70
     0
 10
0.0
 20
0.0
 11
1.0
 21
1.0
 12
1.375
 22
1.0625
 13
0.0
 23
0.0
 14
1.0
 24
1.0
 15
0.0
 25
0.0
 16
0.0
 26
0.0
 36
1.0
 17
0.0
 27
0.0
 37
0.0
 40
2.125
 41
1.294117647058823
 42
50.0
 43
0.0
 44
0.0
 50
0.0
 51
0.0
 71
     0
 72
   100
 73
     1
 74
     1
 75
     0
 76
     0
 77
     0
 78
     0
281
     0
 65
     1
110
0.0
120
0.0
130
0.0
111
1.0
121
0.0
131
0.0
112
0.0
122
1.0
132
0.0
 79
     0
146
0.0
  0
ENDTAB
  0
TABLE
  2
LTYPE
  5
5
330
0
100
AcDbSymbolTable
 70
    59
  0
LTYPE
  5
29
330
5
100
AcDbSymbolTableRecord
100
AcDbLinetypeTableRecord
  2
ByBlock
 70
     0
  3

 72
    65
 73
     0
 40
0.0
  0
LTYPE
  5
2A
330
5
100
AcDbSymbolTableRecord
100
AcDbLinetypeTableRecord
  2
ByLayer
 70
     0
  3

 72
    65
 73
     0
 40
0.0
  0
LTYPE
  5
2B
330
5
100
AcDbSymbolTableRecord
100
AcDbLinetypeTableRecord
  2
Continuous
 70
     0
  3
Solid line
 72
    65
 73
     0
 40
0.0
  0
LTYPE
  5
40
330
5
100
AcDbSymbolTableRecord
100
AcDbLinetypeTableRecord
  2
BY_STANDARD
 70
     0
  3
By Standard ____________    ____    ____   _
 72
    65
 73
     6
 40
1.240299999999999
 49
0.6614
 74
     0
 49
-0.0827
 74
     0
 49
0.1654
 74
     0
 49
-0.0827
 74
     0
 49
0.1654
 74
     0
 49
-0.0827
 74
     0
  0
LTYPE
  5
41
330
5
100
AcDbSymbolTableRecord
100
AcDbLinetypeTableRecord
  2
CHAIN
 70
     0
  3
Chain ____ _ ____ _ ____ _ ____ _ ____ _ ____
 72
    65
 73
     4
 40
0.7087
 49
0.4724000000000001
 74
     0
 49
-0.0591
 74
     0
 49
0.1181
 74
     0
 49
-0.0591
 74
     0
  0
LTYPE
  5
42
330
5
100
AcDbSymbolTableRecord
100
AcDbLinetypeTableRecord
  2
DASH_DOT
 70
     0
  3
Dash dot __ . __ . __ . __ . __ . __ . __ . __
 72
    65
 73
     4
 40
0.37
 49
0.24
 74
     0
 49
-0.06
 74
     0
 49
0.01
 74
     0
 49
-0.06
 74
     0
  0
LTYPE
  5
43
330
5
100
AcDbSymbolTableRecord
100
AcDbLinetypeTableRecord
  2
DOUBLE_DASH_DOT
 70
     0
  3
Double-Dash Dot __ __ . __ __ . __ __ . __ _
 72
    65
 73
     6
 40
0.4398
 49
0.24
 74
     0
 49
-0.06
 74
     0
 49
0.0098
 74
     0
 49
-0.06
 74
     0
 49
0.01
 74
     0
 49
-0.06
 74
     0
  0
LTYPE
  5
44
330
5
100
AcDbSymbolTableRecord
100
AcDbLinetypeTableRecord
  2
DASH_TRIPLE_DOT
 70
     0
  3
Dash Triple-Dot _ . . . _ . . . _ . . . _
 72
    65
 73
     8
 40
0.51
 49
0.24
 74
     0
 49
-0.06
 74
     0
 49
0.01
 74
     0
 49
-0.06
 74
     0
 49
0.01
 74
     0
 49
-0.06
 74
     0
 49
0.01
 74
     0
 49
-0.06
 74
     0
  0
LTYPE
  5
45
330
5
100
AcDbSymbolTableRecord
100
AcDbLinetypeTableRecord
  2
DASHED
 70
     0
  3
Dashed __ __ __ __ __ __ __ __ __ __ __ __ __ _
 72
    65
 73
     2
 40
0.2067
 49
0.1654
 74
     0
 49
-0.0413
 74
     0
  0
LTYPE
  5
46
330
5
100
AcDbSymbolTableRecord
100
AcDbLinetypeTableRecord
  2
DASH_DOUBLE_DOT
 70
     0
  3
Dash Double-Dot __ . . __ . . __ . . __ . .
 72
    65
 73
     6
 40
0.4398
 49
0.24
 74
     0
 49
-0.06
 74
     0
 49
0.0098
 74
     0
 49
-0.06
 74
     0
 49
0.01
 74
     0
 49
-0.06
 74
     0
  0
LTYPE
  5
47
330
5
100
AcDbSymbolTableRecord
100
AcDbLinetypeTableRecord
  2
DASHED_SPACE
 70
     0
  3
Dashed Space __ __ __ __ __ __ __ __ __ __ __ _
 72
    65
 73
     2
 40
0.2067
 49
0.1654
 74
     0
 49
-0.0413
 74
     0
  0
LTYPE
  5
48
330
5
100
AcDbSymbolTableRecord
100
AcDbLinetypeTableRecord
  2
DOTTED
 70
     0
  3
Dotted . . . . . . . . . . . . . . . . . . . . 
 72
    65
 73
     2
 40
0.0482
 49
0.0069
 74
     0
 49
-0.0413
 74
     0
  0
LTYPE
  5
49
330
5
100
AcDbSymbolTableRecord
100
AcDbLinetypeTableRecord
  2
DOUBLE_DASH_CHAIN
 70
     0
  3
Double-Dash Chain ______  __  __  ______  __  _
 72
    65
 73
     6
 40
1.240299999999999
 49
0.6614
 74
     0
 49
-0.0827
 74
     0
 49
0.1654
 74
     0
 49
-0.0827
 74
     0
 49
0.1654
 74
     0
 49
-0.0827
 74
     0
  0
LTYPE
  5
4B
330
5
100
AcDbSymbolTableRecord
100
AcDbLinetypeTableRecord
  2
DOUBLE_DASH_DOUBLE_DOT
 70
     0
  3
Double-Dash Double-dot _ _ . . _ _ . . _
 72
    65
 73
     8
 40
0.7400000000000001
 49
0.24
 74
     0
 49
-0.06
 74
     0
 49
0.24
 74
     0
 49
-0.06
 74
     0
 49
0.01
 74
     0
 49
-0.06
 74
     0
 49
0.01
 74
     0
 49
-0.06
 74
     0
  0
LTYPE
  5
4C
330
5
100
AcDbSymbolTableRecord
100
AcDbLinetypeTableRecord
  2
DOUBLE_DASH_TRIPLE_DOT
 70
     0
  3
Double Dash Triple Dot __ __ . . . __ __ . .
 72
    65
 73
    10
 40
0.8100000000000001
 49
0.24
 74
     0
 49
-0.06
 74
     0
 49
0.24
 74
     0
 49
-0.06
 74
     0
 49
0.01
 74
     0
 49
-0.06
 74
     0
 49
0.01
 74
     0
 49
-0.06
 74
     0
 49
0.01
 74
     0
 49
-0.06
 74
     0
  0
LTYPE
  5
4D
330
5
100
AcDbSymbolTableRecord
100
AcDbLinetypeTableRecord
  2
LONG_DASH_DOTTED
 70
     0
  3
Long Dash Dotted ____ . ____ . ____ . ____ . _
 72
    65
 73
     4
 40
0.3543
 49
0.2362
 74
     0
 49
-0.0295
 74
     0
 49
0.0591
 74
     0
 49
-0.0295
 74
     0
  0
LTYPE
  5
4E
330
5
100
AcDbSymbolTableRecord
100
AcDbLinetypeTableRecord
  2
LONG_DASH_DOUBLE_DOT
 70
     0
  3
Long Dash Double Dot ________  .  .  ________  
 72
    65
 73
     6
 40
0.6799999999999999
 49
0.48
 74
     0
 49
-0.06
 74
     0
 49
0.01
 74
     0
 49
-0.06
 74
     0
 49
0.01
 74
     0
 49
-0.06
 74
     0
  0
LTYPE
  5
4F
330
5
100
AcDbSymbolTableRecord
100
AcDbLinetypeTableRecord
  2
LONG_DASH_TRIPLE_DOT
 70
     0
  3
Long Dash Triple Dot ____ ... ____ ... ____
 72
    65
 73
     8
 40
0.3689
 49
0.2362
 74
     0
 49
-0.0295
 74
     0
 49
0.0049
 74
     0
 49
-0.0295
 74
     0
 49
0.0049
 74
     0
 49
-0.0295
 74
     0
 49
0.0049
 74
     0
 49
-0.0295
 74
     0
  0
LTYPE
  5
50
330
5
100
AcDbSymbolTableRecord
100
AcDbLinetypeTableRecord
  2
BORDER
 70
     0
  3
Border __ __ . __ __ . __ __ . __ __ . __ __ .
 72
    65
 73
     6
 40
1.75
 49
0.5
 74
     0
 49
-0.25
 74
     0
 49
0.5
 74
     0
 49
-0.25
 74
     0
 49
0.0
 74
     0
 49
-0.25
 74
     0
  0
LTYPE
  5
51
330
5
100
AcDbSymbolTableRecord
100
AcDbLinetypeTableRecord
  2
BORDER2
 70
     0
  3
Border (.5x) __.__.__.__.__.__.__.__.__.__.__.
 72
    65
 73
     6
 40
0.875
 49
0.25
 74
     0
 49
-0.125
 74
     0
 49
0.25
 74
     0
 49
-0.125
 74
     0
 49
0.0
 74
     0
 49
-0.125
 74
     0
  0
LTYPE
  5
52
330
5
100
AcDbSymbolTableRecord
100
AcDbLinetypeTableRecord
  2
BORDERX2
 70
     0
  3
Border (2x) ____  ____  .  ____  ____  .  ___
 72
    65
 73
     6
 40
3.5
 49
1.0
 74
     0
 49
-0.5
 74
     0
 49
1.0
 74
     0
 49
-0.5
 74
     0
 49
0.0
 74
     0
 49
-0.5
 74
     0
  0
LTYPE
  5
53
330
5
100
AcDbSymbolTableRecord
100
AcDbLinetypeTableRecord
  2
CENTER
 70
     0
  3
Center ____ _ ____ _ ____ _ ____ _ ____ _ ____
 72
    65
 73
     4
 40
2.0
 49
1.25
 74
     0
 49
-0.25
 74
     0
 49
0.25
 74
     0
 49
-0.25
 74
     0
  0
LTYPE
  5
54
330
5
100
AcDbSymbolTableRecord
100
AcDbLinetypeTableRecord
  2
CENTER2
 70
     0
  3
Center (.5x) ___ _ ___ _ ___ _ ___ _ ___ _ ___
 72
    65
 73
     4
 40
1.125
 49
0.75
 74
     0
 49
-0.125
 74
     0
 49
0.125
 74
     0
 49
-0.125
 74
     0
  0
LTYPE
  5
55
330
5
100
AcDbSymbolTableRecord
100
AcDbLinetypeTableRecord
  2
CENTERX2
 70
     0
  3
Center (2x) ________  __  ________  __  _____
 72
    65
 73
     4
 40
4.0
 49
2.5
 74
     0
 49
-0.5
 74
     0
 49
0.5
 74
     0
 49
-0.5
 74
     0
  0
LTYPE
  5
56
330
5
100
AcDbSymbolTableRecord
100
AcDbLinetypeTableRecord
  2
DASHDOT2
 70
     0
  3
Dash dot (.5x) _._._._._._._._._._._._._._._.
 72
    65
 73
     4
 40
0.5
 49
0.25
 74
     0
 49
-0.125
 74
     0
 49
0.0
 74
     0
 49
-0.125
 74
     0
  0
LTYPE
  5
57
330
5
100
AcDbSymbolTableRecord
100
AcDbLinetypeTableRecord
  2
DASHDOTX2
 70
     0
  3
Dash dot (2x) ____  .  ____  .  ____  .  ___
 72
    65
 73
     4
 40
2.0
 49
1.0
 74
     0
 49
-0.5
 74
     0
 49
0.0
 74
     0
 49
-0.5
 74
     0
  0
LTYPE
  5
59
330
5
100
AcDbSymbolTableRecord
100
AcDbLinetypeTableRecord
  2
DASHED2
 70
     0
  3
Dashed (.5x) _ _ _ _ _ _ _ _ _ _ _ _ _ _ _ _ _
 72
    65
 73
     2
 40
0.375
 49
0.25
 74
     0
 49
-0.125
 74
     0
  0
LTYPE
  5
5A
330
5
100
AcDbSymbolTableRecord
100
AcDbLinetypeTableRecord
  2
DASHEDX2
 70
     0
  3
Dashed (2x) ____  ____  ____  ____  ____  ___
 72
    65
 73
     2
 40
1.5
 49
1.0
 74
     0
 49
-0.5
 74
     0
  0
LTYPE
  5
5B
330
5
100
AcDbSymbolTableRecord
100
AcDbLinetypeTableRecord
  2
DIVIDE
 70
     0
  3
Divide ____ . . ____ . . ____ . . ____ . . ____
 72
    65
 73
     6
 40
1.25
 49
0.5
 74
     0
 49
-0.25
 74
     0
 49
0.0
 74
     0
 49
-0.25
 74
     0
 49
0.0
 74
     0
 49
-0.25
 74
     0
  0
LTYPE
  5
5C
330
5
100
AcDbSymbolTableRecord
100
AcDbLinetypeTableRecord
  2
DIVIDE2
 70
     0
  3
Divide (.5x) __..__..__..__..__..__..__..__.._
 72
    65
 73
     6
 40
0.625
 49
0.25
 74
     0
 49
-0.125
 74
     0
 49
0.0
 74
     0
 49
-0.125
 74
     0
 49
0.0
 74
     0
 49
-0.125
 74
     0
  0
LTYPE
  5
5D
330
5
100
AcDbSymbolTableRecord
100
AcDbLinetypeTableRecord
  2
DIVIDEX2
 70
     0
  3
Divide (2x) ________  .  .  ________  .  .  _
 72
    65
 73
     6
 40
2.5
 49
1.0
 74
     0
 49
-0.5
 74
     0
 49
0.0
 74
     0
 49
-0.5
 74
     0
 49
0.0
 74
     0
 49
-0.5
 74
     0
  0
LTYPE
  5
5E
330
5
100
AcDbSymbolTableRecord
100
AcDbLinetypeTableRecord
  2
DOT
 70
     0
  3
Dot . . . . . . . . . . . . . . . . . . . . . .
 72
    65
 73
     2
 40
0.25
 49
0.0
 74
     0
 49
-0.25
 74
     0
  0
LTYPE
  5
5F
330
5
100
AcDbSymbolTableRecord
100
AcDbLinetypeTableRecord
  2
DOT2
 70
     0
  3
Dot (.5x) .....................................
 72
    65
 73
     2
 40
0.125
 49
0.0
 74
     0
 49
-0.125
 74
     0
  0
LTYPE
  5
60
330
5
100
AcDbSymbolTableRecord
100
AcDbLinetypeTableRecord
  2
DOTX2
 70
     0
  3
Dot (2x) .  .  .  .  .  .  .  .  .  .  .  .  . 
 72
    65
 73
     2
 40
0.5
 49
0.0
 74
     0
 49
-0.5
 74
     0
  0
LTYPE
  5
61
330
5
100
AcDbSymbolTableRecord
100
AcDbLinetypeTableRecord
  2
HIDDEN
 70
     0
  3
Hidden __ __ __ __ __ __ __ __ __ __ __ __ __ _
 72
    65
 73
     2
 40
0.375
 49
0.25
 74
     0
 49
-0.125
 74
     0
  0
LTYPE
  5
62
330
5
100
AcDbSymbolTableRecord
100
AcDbLinetypeTableRecord
  2
HIDDEN2
 70
     0
  3
Hidden (.5x) _ _ _ _ _ _ _ _ _ _ _ _ _ _ _ _ _
 72
    65
 73
     2
 40
0.1875
 49
0.125
 74
     0
 49
-0.0625
 74
     0
  0
LTYPE
  5
63
330
5
100
AcDbSymbolTableRecord
100
AcDbLinetypeTableRecord
  2
HIDDENX2
 70
     0
  3
Hidden (2x) ____ ____ ____ ____ ____ ____ ____
 72
    65
 73
     2
 40
0.75
 49
0.5
 74
     0
 49
-0.25
 74
     0
  0
LTYPE
  5
64
330
5
100
AcDbSymbolTableRecord
100
AcDbLinetypeTableRecord
  2
PHANTOM
 70
     0
  3
Phantom ______  __  __  ______  __  __  ______
 72
    65
 73
     6
 40
2.5
 49
1.25
 74
     0
 49
-0.25
 74
     0
 49
0.25
 74
     0
 49
-0.25
 74
     0
 49
0.25
 74
     0
 49
-0.25
 74
     0
  0
LTYPE
  5
65
330
5
100
AcDbSymbolTableRecord
100
AcDbLinetypeTableRecord
  2
PHANTOM2
 70
     0
  3
Phantom (.5x) ___ _ _ ___ _ _ ___ _ _ ___ _ _
 72
    65
 73
     6
 40
1.25
 49
0.625
 74
     0
 49
-0.125
 74
     0
 49
0.125
 74
     0
 49
-0.125
 74
     0
 49
0.125
 74
     0
 49
-0.125
 74
     0
  0
LTYPE
  5
66
330
5
100
AcDbSymbolTableRecord
100
AcDbLinetypeTableRecord
  2
PHANTOMX2
 70
     0
  3
Phantom (2x) ____________    ____    ____   _
 72
    65
 73
     6
 40
5.0
 49
2.5
 74
     0
 49
-0.5
 74
     0
 49
0.5
 74
     0
 49
-0.5
 74
     0
 49
0.5
 74
     0
 49
-0.5
 74
     0
  0
LTYPE
  5
67
330
5
100
AcDbSymbolTableRecord
100
AcDbLinetypeTableRecord
  2
ACAD_ISO02W100
 70
     0
  3
ISO dash __ __ __ __ __ __ __ __ __ __ __ __ __
 72
    65
 73
     2
 40
0.59
 49
0.47
 74
     0
 49
-0.12
 74
     0
  0
LTYPE
  5
68
330
5
100
AcDbSymbolTableRecord
100
AcDbLinetypeTableRecord
  2
ACAD_ISO03W100
 70
     0
  3
ISO dash space __    __    __    __    __    __
 72
    65
 73
     2
 40
1.179999999999999
 49
0.47
 74
     0
 49
-0.71
 74
     0
  0
LTYPE
  5
69
330
5
100
AcDbSymbolTableRecord
100
AcDbLinetypeTableRecord
  2
ACAD_ISO04W100
 70
     0
  3
ISO long-dash dot ____ . ____ . ____ . ____ . _
 72
    65
 73
     4
 40
1.179999999999999
 49
0.9399999999999998
 74
     0
 49
-0.12
 74
     0
 49
0.0
 74
     0
 49
-0.12
 74
     0
  0
LTYPE
  5
6A
330
5
100
AcDbSymbolTableRecord
100
AcDbLinetypeTableRecord
  2
ACAD_ISO05W100
 70
     0
  3
ISO long-dash double-dot ____ .. ____ .. ____ .
 72
    65
 73
     6
 40
1.299999999999999
 49
0.9399999999999998
 74
     0
 49
-0.12
 74
     0
 49
0.0
 74
     0
 49
-0.12
 74
     0
 49
0.0
 74
     0
 49
-0.12
 74
     0
  0
LTYPE
  5
6B
330
5
100
AcDbSymbolTableRecord
100
AcDbLinetypeTableRecord
  2
ACAD_ISO06W100
 70
     0
  3
ISO long-dash triple-dot ____ ... ____ ... ____
 72
    65
 73
     8
 40
1.419999999999999
 49
0.9399999999999998
 74
     0
 49
-0.12
 74
     0
 49
0.0
 74
     0
 49
-0.12
 74
     0
 49
0.0
 74
     0
 49
-0.12
 74
     0
 49
0.0
 74
     0
 49
-0.12
 74
     0
  0
LTYPE
  5
6C
330
5
100
AcDbSymbolTableRecord
100
AcDbLinetypeTableRecord
  2
ACAD_ISO07W100
 70
     0
  3
ISO dot . . . . . . . . . . . . . . . . . . . .
 72
    65
 73
     2
 40
0.12
 49
0.0
 74
     0
 49
-0.12
 74
     0
  0
LTYPE
  5
6D
330
5
100
AcDbSymbolTableRecord
100
AcDbLinetypeTableRecord
  2
ACAD_ISO08W100
 70
     0
  3
ISO long-dash short-dash ____ __ ____ __ ____ _
 72
    65
 73
     4
 40
0.95
 49
0.47
 74
     0
 49
-0.12
 74
     0
 49
0.24
 74
     0
 49
-0.12
 74
     0
  0
LTYPE
  5
6E
330
5
100
AcDbSymbolTableRecord
100
AcDbLinetypeTableRecord
  2
ACAD_ISO09W100
 70
     0
  3
ISO long-dash double-short-dash ____ __ __ ____
 72
    65
 73
     6
 40
1.31
 49
0.47
 74
     0
 49
-0.12
 74
     0
 49
0.24
 74
     0
 49
-0.12
 74
     0
 49
0.24
 74
     0
 49
-0.12
 74
     0
  0
LTYPE
  5
6F
330
5
100
AcDbSymbolTableRecord
100
AcDbLinetypeTableRecord
  2
ACAD_ISO10W100
 70
     0
  3
ISO dash dot __ . __ . __ . __ . __ . __ . __ .
 72
    65
 73
     4
 40
0.71
 49
0.47
 74
     0
 49
-0.12
 74
     0
 49
0.0
 74
     0
 49
-0.12
 74
     0
  0
LTYPE
  5
70
330
5
100
AcDbSymbolTableRecord
100
AcDbLinetypeTableRecord
  2
ACAD_ISO11W100
 70
     0
  3
ISO double-dash dot __ __ . __ __ . __ __ . __ 
 72
    65
 73
     6
 40
1.299999999999999
 49
0.47
 74
     0
 49
-0.12
 74
     0
 49
0.47
 74
     0
 49
-0.12
 74
     0
 49
0.0
 74
     0
 49
-0.12
 74
     0
  0
LTYPE
  5
71
330
5
100
AcDbSymbolTableRecord
100
AcDbLinetypeTableRecord
  2
ACAD_ISO12W100
 70
     0
  3
ISO dash double-dot __ . . __ . . __ . . __ . .
 72
    65
 73
     6
 40
0.8299999999999998
 49
0.47
 74
     0
 49
-0.12
 74
     0
 49
0.0
 74
     0
 49
-0.12
 74
     0
 49
0.0
 74
     0
 49
-0.12
 74
     0
  0
LTYPE
  5
72
330
5
100
AcDbSymbolTableRecord
100
AcDbLinetypeTableRecord
  2
ACAD_ISO13W100
 70
     0
  3
ISO double-dash double-dot __ __ . . __ __ . . 
 72
    65
 73
     8
 40
1.419999999999999
 49
0.47
 74
     0
 49
-0.12
 74
     0
 49
0.47
 74
     0
 49
-0.12
 74
     0
 49
0.0
 74
     0
 49
-0.12
 74
     0
 49
0.0
 74
     0
 49
-0.12
 74
     0
  0
LTYPE
  5
73
330
5
100
AcDbSymbolTableRecord
100
AcDbLinetypeTableRecord
  2
ACAD_ISO14W100
 70
     0
  3
ISO dash triple-dot __ . . . __ . . . __ . . . 
 72
    65
 73
     8
 40
0.95
 49
0.47
 74
     0
 49
-0.12
 74
     0
 49
0.0
 74
     0
 49
-0.12
 74
     0
 49
0.0
 74
     0
 49
-0.12
 74
     0
 49
0.0
 74
     0
 49
-0.12
 74
     0
  0
LTYPE
  5
74
330
5
100
AcDbSymbolTableRecord
100
AcDbLinetypeTableRecord
  2
ACAD_ISO15W100
 70
     0
  3
ISO double-dash triple-dot __ __ . . . __ __ . 
 72
    65
 73
    10
 40
1.539999999999999
 49
0.47
 74
     0
 49
-0.12
 74
     0
 49
0.47
 74
     0
 49
-0.12
 74
     0
 49
0.0
 74
     0
 49
-0.12
 74
     0
 49
0.0
 74
     0
 49
-0.12
 74
     0
 49
0.0
 74
     0
 49
-0.12
 74
     0
  0
LTYPE
  5
77
330
5
100
AcDbSymbolTableRecord
100
AcDbLinetypeTableRecord
  2
FENCELINE1
 70
     0
  3
Fenceline circle ----0-----0----0-----0----0---
 72
    65
 73
     4
 40
1.45
 49
0.25
 74
     0
 49
-0.1
 74
     4
 75
   133
340
76
 46
0.1
 50
0.0
 44
-0.1
 45
0.0
 49
-0.1
 74
     0
 49
1.0
 74
     0
  0
LTYPE
  5
78
330
5
100
AcDbSymbolTableRecord
100
AcDbLinetypeTableRecord
  2
FENCELINE2
 70
     0
  3
Fenceline square ----[]-----[]----[]-----[]----
 72
    65
 73
     4
 40
1.45
 49
0.25
 74
     0
 49
-0.1
 74
     4
 75
   132
340
76
 46
0.1
 50
0.0
 44
-0.1
 45
0.0
 49
-0.1
 74
     0
 49
1.0
 74
     0
  0
LTYPE
  5
79
330
5
100
AcDbSymbolTableRecord
100
AcDbLinetypeTableRecord
  2
TRACKS
 70
     0
  3
Tracks -|-|-|-|-|-|-|-|-|-|-|-|-|-|-|-|-|-|-|-|
 72
    65
 73
     2
 40
0.3
 49
0.15
 74
     4
 75
   130
340
76
 46
0.25
 50
0.0
 44
0.0
 45
0.0
 49
0.15
 74
     0
  0
LTYPE
  5
7A
330
5
100
AcDbSymbolTableRecord
100
AcDbLinetypeTableRecord
  2
BATTING
 70
     0
  3
Batting SSSSSSSSSSSSSSSSSSSSSSSSSSSSSSSSSSSSSSS
 72
    65
 73
     4
 40
0.4001000000000001
 49
0.0001
 74
     0
 49
-0.1
 74
     4
 75
   134
340
76
 46
0.1
 50
0.0
 44
-0.1
 45
0.0
 49
-0.2
 74
     4
 75
   134
340
76
 46
0.1
 50
180.0
 44
0.1
 45
0.0
 49
-0.1
 74
     0
  0
LTYPE
  5
7B
330
5
100
AcDbSymbolTableRecord
100
AcDbLinetypeTableRecord
  2
HOT_WATER_SUPPLY
 70
     0
  3
Hot water supply ---- HW ---- HW ---- HW ----
 72
    65
 73
     3
 40
0.9
 49
0.5
 74
     0
 49
-0.2
 74
     2
 75
     0
340
26
 46
0.1
 50
0.0
 44
-0.1
 45
-0.05
  9
HW
 49
-0.2
 74
     0
  0
LTYPE
  5
7C
330
5
100
AcDbSymbolTableRecord
100
AcDbLinetypeTableRecord
  2
GAS_LINE
 70
     0
  3
Gas line ----GAS----GAS----GAS----GAS----GAS---
 72
    65
 73
     3
 40
0.95
 49
0.5
 74
     0
 49
-0.2
 74
     2
 75
     0
340
26
 46
0.1
 50
0.0
 44
-0.1
 45
-0.05
  9
GAS
 49
-0.25
 74
     0
  0
LTYPE
  5
7D
330
5
100
AcDbSymbolTableRecord
100
AcDbLinetypeTableRecord
  2
ZIGZAG
 70
     0
  3
Zig zag /\/\/\/\/\/\/\/\/\/\/\/\/\/\/\/\/\/\/\/
 72
    65
 73
     4
 40
0.8001000000000001
 49
0.0001
 74
     0
 49
-0.2
 74
     4
 75
   131
340
76
 46
0.2
 50
0.0
 44
-0.2
 45
0.0
 49
-0.4
 74
     4
 75
   131
340
76
 46
0.2
 50
180.0
 44
0.2
 45
0.0
 49
-0.2
 74
     0
  0
ENDTAB
  0
TABLE
  2
LAYER
  5
2
330
0
100
AcDbSymbolTable
 70
    25
  0
LAYER
  5
25
330
2
100
AcDbSymbolTableRecord
100
AcDbLayerTableRecord
  2
0
 70
     0
 62
     7
  6
Continuous
370
    -3
390
F
  0
LAYER
  5
81
330
2
100
AcDbSymbolTableRecord
100
AcDbLayerTableRecord
  2
Border (ANSI)
 70
     0
 62
     7
  6
Continuous
370
    70
390
F
  0
LAYER
  5
86
330
2
100
AcDbSymbolTableRecord
100
AcDbLayerTableRecord
  2
Dimension (ANSI)
 70
     0
 62
     7
  6
Continuous
370
    25
390
F
  0
LAYER
  5
89
330
2
100
AcDbSymbolTableRecord
100
AcDbLayerTableRecord
  2
Hidden Narrow (ANSI)
 70
     0
 62
     7
  6
DASHED
370
    25
390
F
  0
LAYER
  5
8E
330
2
100
AcDbSymbolTableRecord
100
AcDbLayerTableRecord
  2
Symbol (ANSI)
 70
     0
 62
     7
  6
Continuous
370
    25
390
F
  0
LAYER
  5
91
330
2
100
AcDbSymbolTableRecord
100
AcDbLayerTableRecord
  2
Visible (ANSI)
 70
     0
 62
     7
  6
Continuous
370
    50
390
F
  0
ENDTAB
  0
TABLE
  2
STYLE
  5
3
330
0
100
AcDbSymbolTable
 70
    12
  0
STYLE
  5
26
330
3
100
AcDbSymbolTableRecord
100
AcDbTextStyleTableRecord
  2
Standard
 70
     0
 40
0.0
 41
1.0
 50
0.0
 71
     0
 42
0.2
  3
TAHOMA.TTF
  4

1001
ACAD
1000
Tahoma
1071
      256
  0
STYLE
  5
76
330
3
100
AcDbSymbolTableRecord
100
AcDbTextStyleTableRecord
  2

 70
     1
 40
0.0
 41
1.0
 50
0.0
 71
     0
 42
0.2
  3
ltypeshp.shx
  4

  0
STYLE
  5
96
330
3
100
AcDbSymbolTableRecord
100
AcDbTextStyleTableRecord
  2
Label Text (ANSI)
 70
     0
 40
0.0
 41
1.0
 50
0.0
 71
     0
 42
0.2
  3
TAHOMA.TTF
  4

1001
ACAD
1000
Tahoma
1071
      256
  0
STYLE
  5
97
330
3
100
AcDbSymbolTableRecord
100
AcDbTextStyleTableRecord
  2
Label Text (DIN)
 70
     0
 40
0.0
 41
1.0
 50
0.0
 71
     0
 42
0.2
  3
isocpeur.ttf
  4

1001
ACAD
1000
ISOCPEUR
1071
      256
  0
STYLE
  5
98
330
3
100
AcDbSymbolTableRecord
100
AcDbTextStyleTableRecord
  2
Label Text (ISO)
 70
     0
 40
0.0
 41
1.0
 50
0.0
 71
     0
 42
0.2
  3
TAHOMA.TTF
  4

1001
ACAD
1000
Tahoma
1071
      256
  0
STYLE
  5
99
330
3
100
AcDbSymbolTableRecord
100
AcDbTextStyleTableRecord
  2
Label Text (JIS)
 70
     0
 40
0.0
 41
1.0
 50
0.0
 71
     0
 42
0.2
  3
TAHOMA.TTF
  4

1001
ACAD
1000
Tahoma
1071
      256
  0
STYLE
  5
9A
330
3
100
AcDbSymbolTableRecord
100
AcDbTextStyleTableRecord
  2
Note Text (ANSI)
 70
     0
 40
0.0
 41
1.0
 50
0.0
 71
     0
 42
0.2
  3
TAHOMA.TTF
  4

1001
ACAD
1000
Tahoma
1071
      256
  0
STYLE
  5
9B
330
3
100
AcDbSymbolTableRecord
100
AcDbTextStyleTableRecord
  2
Note Text (DIN)
 70
     0
 40
0.0
 41
1.0
 50
0.0
 71
     0
 42
0.2
  3
isocpeur.ttf
  4

1001
ACAD
1000
ISOCPEUR
1071
      256
  0
STYLE
  5
9C
330
3
100
AcDbSymbolTableRecord
100
AcDbTextStyleTableRecord
  2
Note Text (ISO)
 70
     0
 40
0.0
 41
1.0
 50
0.0
 71
     0
 42
0.2
  3
TAHOMA.TTF
  4

1001
ACAD
1000
Tahoma
1071
      256
  0
STYLE
  5
9D
330
3
100
AcDbSymbolTableRecord
100
AcDbTextStyleTableRecord
  2
Note Text (JIS)
 70
     0
 40
0.0
 41
1.0
 50
0.0
 71
     0
 42
0.2
  3
TAHOMA.TTF
  4

1001
ACAD
1000
Tahoma
1071
      256
  0
STYLE
  5
F1
330
3
100
AcDbSymbolTableRecord
100
AcDbTextStyleTableRecord
  2
Text Style29
 70
     0
 40
0.0
 41
1.0
 50
0.0
 71
     0
 42
0.2
  3
TAHOMA.TTF
  4

1001
ACAD
1000
Tahoma
1071
      256
  0
STYLE
  5
1E2
330
3
100
AcDbSymbolTableRecord
100
AcDbTextStyleTableRecord
  2
Text Style6
 70
     0
 40
0.0
 41
1.0
 50
0.0
 71
     0
 42
0.2
  3
AIGDT___.TTF
  4

1001
ACAD
1000
AIGDT
1071
      514
  0
ENDTAB
  0
TABLE
  2
VIEW
  5
6
330
0
100
AcDbSymbolTable
 70
     0
  0
ENDTAB
  0
TABLE
  2
UCS
  5
7
330
0
100
AcDbSymbolTable
 70
     0
  0
ENDTAB
  0
TABLE
  2
APPID
  5
9
330
0
100
AcDbSymbolTable
 70
     1
  0
APPID
  5
27
330
9
100
AcDbSymbolTableRecord
100
AcDbRegAppTableRecord
  2
ACAD
 70
     0
  0
ENDTAB
  0
TABLE
  2
DIMSTYLE
  5
A
330
0
100
AcDbSymbolTable
 70
    15
100
AcDbDimStyleTable
 71
     0
  0
DIMSTYLE
105
3F
330
A
100
AcDbSymbolTableRecord
100
AcDbDimStyleTableRecord
  2
Standard
 70
     0
340
26
  0
DIMSTYLE
105
9E
330
A
100
AcDbSymbolTableRecord
100
AcDbDimStyleTableRecord
  2
Architectural (ANSI)
 70
     0
 40
0.25
 41
0.0984251946210861
 42
0.0625
 43
0.2362204724409449
 44
0.125
 45
0.00000001
 46
0.3937007874015748
 78
     4
 79
     3
140
0.1200000047683716
144
0.0833333333333333
147
0.031496062992126
171
     1
176
   256
177
   256
178
   256
272
     2
274
     1
276
     2
277
     4
284
    12
286
    12
340
9A
371
    -1
372
    -1
  0
DIMSTYLE
105
9F
330
A
100
AcDbSymbolTableRecord
100
AcDbDimStyleTableRecord
  2
Architectural (ANSI)$7
 70
     0
 40
0.25
 41
0.0984251946210861
 42
0.0625
 43
0.2362204724409449
 44
0.125
 45
0.00000001
 46
0.3937007874015748
 78
     4
 79
     3
140
0.1200000047683716
144
0.0833333333333333
147
0.031496062992126
171
     1
176
   256
177
   256
178
   256
272
     2
274
     1
276
     2
277
     4
284
    12
286
    12
340
9A
371
    -1
372
    -1
  0
DIMSTYLE
105
A0
330
A
100
AcDbSymbolTableRecord
100
AcDbDimStyleTableRecord
  2
Default - Fraction (ANSI)
 70
     0
 40
0.25
 41
0.0984251946210861
 42
0.0625
 43
0.2362204724409449
 44
0.125
 45
0.00000001
 46
0.3937007874015748
 78
    12
 79
     3
140
0.1200000047683716
147
0.031496062992126
171
     1
176
   256
177
   256
178
   256
272
     2
274
     1
276
     2
277
     5
284
    12
286
    12
340
9A
371
    -1
372
    -1
  0
DIMSTYLE
105
A1
330
A
100
AcDbSymbolTableRecord
100
AcDbDimStyleTableRecord
  2
Default - Fraction (ANSI)$7
 70
     0
 40
0.25
 41
0.0984251946210861
 42
0.0625
 43
0.2362204724409449
 44
0.125
 45
0.00000001
 46
0.3937007874015748
 78
    12
 79
     3
140
0.1200000047683716
147
0.031496062992126
171
     1
176
   256
177
   256
178
   256
272
     2
274
     1
276
     2
277
     5
284
    12
286
    12
340
9A
371
    -1
372
    -1
  0
DIMSTYLE
105
A2
330
A
100
AcDbSymbolTableRecord
100
AcDbDimStyleTableRecord
  2
Default - mm (ANSI)
 70
     0
 40
0.25
 41
0.0984251946210861
 42
0.063
 43
0.2362204724409449
 44
0.125
 45
0.00000001
 46
0.3937007874015748
 73
     0
140
0.1200000047683716
143
1.0
144
25.4
147
0.031496062992126
171
     1
176
   256
177
   256
178
   256
179
     1
271
     2
272
     2
274
     1
340
9A
371
    -1
372
    -1
  0
DIMSTYLE
105
A3
330
A
100
AcDbSymbolTableRecord
100
AcDbDimStyleTableRecord
  2
Default - mm (ANSI)$7
 70
     0
 40
0.25
 41
0.0984251946210861
 42
0.063
 43
0.2362204724409449
 44
0.125
 45
0.00000001
 46
0.3937007874015748
 73
     0
140
0.1200000047683716
143
1.0
144
25.4
147
0.031496062992126
171
     1
176
   256
177
   256
178
   256
179
     1
271
     2
272
     2
274
     1
340
9A
371
    -1
372
    -1
  0
DIMSTYLE
105
A4
330
A
100
AcDbSymbolTableRecord
100
AcDbDimStyleTableRecord
  2
Default - mm [in] (ANSI)
 70
     0
  4
 in
 40
0.25
 41
0.0984251946210861
 42
0.063
 43
0.25
 44
0.125
 45
0.00000001
 46
0.3937007874015748
 73
     0
 78
     4
 79
     1
140
0.1200000047683716
143
0.03937
144
25.4
147
0.031496062992126
170
     1
171
     3
176
   256
177
   256
178
   256
179
     1
271
     2
272
     2
274
     3
284
     4
286
     4
340
9A
371
    -1
372
    -1
  0
DIMSTYLE
105
A5
330
A
100
AcDbSymbolTableRecord
100
AcDbDimStyleTableRecord
  2
Default - mm [in] (ANSI)$7
 70
     0
  4
 in
 40
0.25
 41
0.0984251946210861
 42
0.063
 43
0.25
 44
0.125
 45
0.00000001
 46
0.3937007874015748
 73
     0
 78
     4
 79
     1
140
0.1200000047683716
143
0.03937
144
25.4
147
0.031496062992126
170
     1
171
     3
176
   256
177
   256
178
   256
179
     1
271
     2
272
     2
274
     3
284
     4
286
     4
340
9A
371
    -1
372
    -1
  0
DIMSTYLE
105
A6
330
A
100
AcDbSymbolTableRecord
100
AcDbDimStyleTableRecord
  2
Default (ANSI)
 70
     0
  3
 in
 40
0.25
 41
0.0984251946210861
 42
0.0625
 43
0.2362204724409449
 44
0.125
 45
0.00000001
 46
0.3937007874015748
140
0.1200000047683716
147
0.031496062992126
171
     1
176
   256
177
   256
178
   256
271
     3
272
     3
274
     1
340
9A
371
    -1
372
    -1
  0
DIMSTYLE
105
A7
330
A
100
AcDbSymbolTableRecord
100
AcDbDimStyleTableRecord
  2
Default (ANSI)$7
 70
     0
  3
 in
 40
0.25
 41
0.0984251946210861
 42
0.0625
 43
0.2362204724409449
 44
0.125
 45
0.00000001
 46
0.3937007874015748
140
0.1200000047683716
147
0.031496062992126
171
     1
176
   256
177
   256
178
   256
271
     3
272
     3
274
     1
340
9A
371
    -1
372
    -1
  0
DIMSTYLE
105
B6
330
A
100
AcDbSymbolTableRecord
100
AcDbDimStyleTableRecord
  2
Miscellaneous Object (ANSI)
 70
     0
  3
 in
 40
0.25
 41
0.1968503892421722
 42
0.0625
 43
0.2362204724409449
 44
0.125
 45
0.00000001
 46
0.3937007874015748
140
0.1799999922513962
146
0.666666721856155
147
0.031496062992126
171
     1
176
   256
177
   256
178
   256
271
     3
272
     2
274
     1
340
96
341
A8
371
    -1
372
    -1
  0
DIMSTYLE
105
B7
330
A
100
AcDbSymbolTableRecord
100
AcDbDimStyleTableRecord
  2
Miscellaneous Object (ANSI)$7
 70
     0
  3
 in
 40
0.25
 41
0.1959999948740005
 42
0.0625
 43
0.2362204724409449
 44
0.125
 45
0.00000001
 46
0.3937007874015748
140
0.1799999922513962
146
0.666666721856155
147
0.031496062992126
171
     1
176
   256
177
   256
178
   256
271
     3
272
     2
274
     1
340
96
341
A8
371
    -1
372
    -1
  0
DIMSTYLE
105
B8
330
A
100
AcDbSymbolTableRecord
100
AcDbDimStyleTableRecord
  2
Alternate (ANSI)
 70
     0
 40
0.25
 41
0.0979999974370003
340
26
342
B9
  0
DIMSTYLE
105
CA
330
A
100
AcDbSymbolTableRecord
100
AcDbDimStyleTableRecord
  2
Datum (ANSI)
 70
     0
 40
0.25
 41
0.0979999974370003
340
26
342
B9
  0
ENDTAB
  0
TABLE
  2
BLOCK_RECORD
  5
1
330
0
100
AcDbSymbolTable
 70
    21
  0
BLOCK_RECORD
  5
37
330
1
100
AcDbSymbolTableRecord
100
AcDbBlockTableRecord
  2
*Model_Space
340
3A
  0
BLOCK_RECORD
  5
33
330
1
100
AcDbSymbolTableRecord
100
AcDbBlockTableRecord
  2
*Paper_Space
340
36
  0
BLOCK_RECORD
  5
3B
330
1
100
AcDbSymbolTableRecord
100
AcDbBlockTableRecord
  2
*Paper_Space0
340
3E
  0
BLOCK_RECORD
  5
A8
330
1
100
AcDbSymbolTableRecord
100
AcDbBlockTableRecord
  2
Filled-1
340
0
  0
BLOCK_RECORD
  5
B9
330
1
100
AcDbSymbolTableRecord
100
AcDbBlockTableRecord
  2
_Closed
340
0
  0
BLOCK_RECORD
  5
C0
330
1
100
AcDbSymbolTableRecord
100
AcDbBlockTableRecord
  2
DatumFilled45
340
0
  0
BLOCK_RECORD
  5
CB
330
1
100
AcDbSymbolTableRecord
100
AcDbBlockTableRecord
  2
Borders Default Border
340
0
102
{BLKREFS
331
FC
102
}
  0
BLOCK_RECORD
  5
125
330
1
100
AcDbSymbolTableRecord
100
AcDbBlockTableRecord
  2
Origin Indicator Symbol1
340
0
102
{BLKREFS
331
14B
102
}
  0
BLOCK_RECORD
  5
196
330
1
100
AcDbSymbolTableRecord
100
AcDbBlockTableRecord
  2
Origin Indicator Symbol2
340
0
102
{BLKREFS
331
1BC
102
}
  0
BLOCK_RECORD
  5
1BD
330
1
100
AcDbSymbolTableRecord
100
AcDbBlockTableRecord
  2
Hole Table1
340
0
102
{BLKREFS
331
257
102
}
  0
BLOCK_RECORD
  5
258
330
1
100
AcDbSymbolTableRecord
100
AcDbBlockTableRecord
  2
Leader Text1
340
0
102
{BLKREFS
331
269
102
}
  0
BLOCK_RECORD
  5
26A
330
1
100
AcDbSymbolTableRecord
100
AcDbBlockTableRecord
  2
Leader Text2
340
0
102
{BLKREFS
331
27B
102
}
  0
BLOCK_RECORD
  5
27C
330
1
100
AcDbSymbolTableRecord
100
AcDbBlockTableRecord
  2
Hole Table2
340
0
102
{BLKREFS
331
306
102
}
  0
BLOCK_RECORD
  5
307
330
1
100
AcDbSymbolTableRecord
100
AcDbBlockTableRecord
  2
Leader Text3
340
0
102
{BLKREFS
331
318
102
}
  0
BLOCK_RECORD
  5
319
330
1
100
AcDbSymbolTableRecord
100
AcDbBlockTableRecord
  2
Leader Text4
340
0
102
{BLKREFS
331
32A
102
}
  0
BLOCK_RECORD
  5
32C
330
1
100
AcDbSymbolTableRecord
100
AcDbBlockTableRecord
  2
Leader Text5
340
0
102
{BLKREFS
331
33D
102
}
  0
BLOCK_RECORD
  5
33E
330
1
100
AcDbSymbolTableRecord
100
AcDbBlockTableRecord
  2
Leader Text6
340
0
102
{BLKREFS
331
34F
102
}
  0
BLOCK_RECORD
  5
350
330
1
100
AcDbSymbolTableRecord
100
AcDbBlockTableRecord
  2
Leader Text7
340
0
102
{BLKREFS
331
361
102
}
  0
BLOCK_RECORD
  5
362
330
1
100
AcDbSymbolTableRecord
100
AcDbBlockTableRecord
  2
Leader Text8
340
0
102
{BLKREFS
331
366
102
}
  0
BLOCK_RECORD
  5
367
330
1
100
AcDbSymbolTableRecord
100
AcDbBlockTableRecord
  2
Leader Text9
340
0
102
{BLKREFS
331
378
102
}
  0
BLOCK_RECORD
  5
379
330
1
100
AcDbSymbolTableRecord
100
AcDbBlockTableRecord
  2
Leader Text10
340
0
102
{BLKREFS
331
38A
102
}
  0
BLOCK_RECORD
  5
38B
330
1
100
AcDbSymbolTableRecord
100
AcDbBlockTableRecord
  2
Leader Text11
340
0
102
{BLKREFS
331
39C
102
}
  0
BLOCK_RECORD
  5
39D
330
1
100
AcDbSymbolTableRecord
100
AcDbBlockTableRecord
  2
Leader Text12
340
0
102
{BLKREFS
331
3AE
102
}
  0
ENDTAB
  0
ENDSEC
  0
SECTION
  2
BLOCKS
  0
BLOCK
  5
38
330
37
100
AcDbEntity
  8
0
100
AcDbBlockBegin
  2
*Model_Space
 70
     0
 10
0.0
 20
0.0
 30
0.0
  3
*Model_Space
  1

  0
ENDBLK
  5
39
330
37
100
AcDbEntity
  8
0
100
AcDbBlockEnd
  0
BLOCK
  5
34
330
33
100
AcDbEntity
 67
     1
  8
0
100
AcDbBlockBegin
  2
*Paper_Space
 70
     0
 10
0.0
 20
0.0
 30
0.0
  3
*Paper_Space
  1

  0
ENDBLK
  5
35
330
33
100
AcDbEntity
 67
     1
  8
0
100
AcDbBlockEnd
  0
BLOCK
  5
3C
330
3B
100
AcDbEntity
 67
     1
  8
0
100
AcDbBlockBegin
  2
*Paper_Space0
 70
     0
 10
0.0
 20
0.0
 30
0.0
  3
*Paper_Space0
  1

  0
ENDBLK
  5
3D
330
3B
100
AcDbEntity
 67
     1
  8
0
100
AcDbBlockEnd
  0
BLOCK
  5
A9
330
A8
100
AcDbEntity
  8
0
100
AcDbBlockBegin
  2
Filled-1
 70
     0
 10
0.0
 20
0.0
 30
0.0
  3
Filled-1
  1

  0
LINE
  5
AB
330
A8
100
AcDbEntity
  8
0
 62
     0
100
AcDbLine
 10
-0.9999999999999998
 20
0.0
 30
0.0
 11
0.0
 21
0.0
 31
0.0
  0
POLYLINE
  5
AC
330
A8
100
AcDbEntity
  8
0
 62
     0
100
AcDb2dPolyline
 66
     1
 10
0.0
 20
0.0
 30
0.0
 70
   128
  0
VERTEX
  5
AD
330
AC
100
AcDbEntity
  8
0
 62
     0
100
AcDbVertex
100
AcDb2dVertex
 10
-0.9999999999999998
 20
-0.0994897959183674
 30
0.0
  0
VERTEX
  5
AE
330
AC
100
AcDbEntity
  8
0
 62
     0
100
AcDbVertex
100
AcDb2dVertex
 10
0.0
 20
0.0
 30
0.0
  0
VERTEX
  5
B0
330
AC
100
AcDbEntity
  8
0
 62
     0
100
AcDbVertex
100
AcDb2dVertex
 10
-0.9999999999999998
 20
0.0994897959183674
 30
0.0
  0
VERTEX
  5
B1
330
AC
100
AcDbEntity
  8
0
 62
     0
100
AcDbVertex
100
AcDb2dVertex
 10
-0.9999999999999998
 20
-0.0994897959183674
 30
0.0
  0
SEQEND
  5
AF
330
AC
100
AcDbEntity
  8
0
 62
     0
  0
SOLID
  5
B2
330
A8
100
AcDbEntity
  8
0
 62
     0
100
AcDbTrace
 10
-0.9999999999999998
 20
-0.0994897959183674
 30
0.0
 11
0.0
 21
0.0
 31
0.0
 12
-0.9999999999999998
 22
0.0994897959183674
 32
0.0
 13
-0.9999999999999998
 23
-0.0994897959183674
 33
0.0
  0
LINE
  5
B3
330
A8
100
AcDbEntity
  8
0
 62
     0
100
AcDbLine
 10
-0.9999999999999998
 20
-0.0994897959183674
 30
0.0
 11
0.0
 21
0.0
 31
0.0
  0
LINE
  5
B4
330
A8
100
AcDbEntity
  8
0
 62
     0
100
AcDbLine
 10
0.0
 20
0.0
 30
0.0
 11
-0.9999999999999998
 21
0.0994897959183674
 31
0.0
  0
LINE
  5
B5
330
A8
100
AcDbEntity
  8
0
 62
     0
100
AcDbLine
 10
-0.9999999999999998
 20
0.0994897959183674
 30
0.0
 11
-0.9999999999999998
 21
-0.0994897959183674
 31
0.0
  0
ENDBLK
  5
AA
330
A8
100
AcDbEntity
  8
0
100
AcDbBlockEnd
  0
BLOCK
  5
BE
330
B9
100
AcDbEntity
  8
0
100
AcDbBlockBegin
  2
_Closed
 70
     0
 10
0.0
 20
0.0
 30
0.0
  3
_Closed
  1

  0
LINE
  5
BA
330
B9
100
AcDbEntity
  8
0
  6
ByBlock
 62
     0
370
    -2
100
AcDbLine
 10
-1.0
 20
0.1666666666666666
 30
0.0
 11
0.0
 21
0.0
 31
0.0
  0
LINE
  5
BB
330
B9
100
AcDbEntity
  8
0
  6
ByBlock
 62
     0
370
    -2
100
AcDbLine
 10
0.0
 20
0.0
 30
0.0
 11
-1.0
 21
-0.1666666666666666
 31
0.0
  0
LINE
  5
BC
330
B9
100
AcDbEntity
  8
0
  6
ByBlock
 62
     0
370
    -2
100
AcDbLine
 10
-1.0
 20
0.1666666666666666
 30
0.0
 11
-1.0
 21
-0.1666666666666666
 31
0.0
  0
LINE
  5
BD
330
B9
100
AcDbEntity
  8
0
  6
ByBlock
 62
     0
370
    -2
100
AcDbLine
 10
0.0
 20
0.0
 30
0.0
 11
-1.0
 21
0.0
 31
0.0
  0
ENDBLK
  5
BF
330
B9
100
AcDbEntity
  8
0
100
AcDbBlockEnd
  0
BLOCK
  5
C1
330
C0
100
AcDbEntity
  8
0
100
AcDbBlockBegin
  2
DatumFilled45
 70
     0
 10
0.0
 20
0.0
 30
0.0
  3
DatumFilled45
  1

  0
POLYLINE
  5
C3
330
C0
100
AcDbEntity
  8
0
 62
     0
100
AcDb2dPolyline
 66
     1
 10
0.0
 20
0.0
 30
0.0
 70
   128
  0
VERTEX
  5
C4
330
C3
100
AcDbEntity
  8
0
 62
     0
100
AcDbVertex
100
AcDb2dVertex
 10
0.0
 20
0.9999999999999998
 30
0.0
  0
VERTEX
  5
C5
330
C3
100
AcDbEntity
  8
0
 62
     0
100
AcDbVertex
100
AcDb2dVertex
 10
0.0
 20
-0.9999999999999998
 30
0.0
  0
VERTEX
  5
C7
330
C3
100
AcDbEntity
  8
0
 62
     0
100
AcDbVertex
100
AcDb2dVertex
 10
-0.9999999999999998
 20
0.0
 30
0.0
  0
VERTEX
  5
C8
330
C3
100
AcDbEntity
  8
0
 62
     0
100
AcDbVertex
100
AcDb2dVertex
 10
0.0
 20
0.9999999999999998
 30
0.0
  0
SEQEND
  5
C6
330
C3
100
AcDbEntity
  8
0
 62
     0
  0
SOLID
  5
C9
330
C0
100
AcDbEntity
  8
0
 62
     0
100
AcDbTrace
 10
0.0
 20
0.9999999999999998
 30
0.0
 11
0.0
 21
-0.9999999999999998
 31
0.0
 12
-0.9999999999999998
 22
0.0
 32
0.0
 13
0.0
 23
0.9999999999999998
 33
0.0
  0
ENDBLK
  5
C2
330
C0
100
AcDbEntity
  8
0
100
AcDbBlockEnd
  0
BLOCK
  5
CC
330
CB
100
AcDbEntity
  8
0
100
AcDbBlockBegin
  2
Borders Default Border
 70
     0
 10
0.0
 20
0.0
 30
0.0
  3
Borders Default Border
  1

  0
POLYLINE
  5
CE
330
CB
100
AcDbEntity
  8
Border (ANSI)
100
AcDb2dPolyline
 66
     1
 10
0.0
 20
0.0
 30
0.0
 70
   128
  0
VERTEX
  5
CF
330
CE
100
AcDbEntity
  8
Border (ANSI)
100
AcDbVertex
100
AcDb2dVertex
 10
0.380000002740875
 20
0.380000002740875
 30
0.0
  0
VERTEX
  5
D0
330
CE
100
AcDbEntity
  8
Border (ANSI)
100
AcDbVertex
100
AcDb2dVertex
 10
0.380000002740875
 20
8.119999893068328
 30
0.0
  0
VERTEX
  5
D2
330
CE
100
AcDbEntity
  8
Border (ANSI)
100
AcDbVertex
100
AcDb2dVertex
 10
10.62000004325326
 20
8.119999893068328
 30
0.0
  0
VERTEX
  5
D3
330
CE
100
AcDbEntity
  8
Border (ANSI)
100
AcDbVertex
100
AcDb2dVertex
 10
10.62000004325326
 20
0.380000002740875
 30
0.0
  0
VERTEX
  5
D4
330
CE
100
AcDbEntity
  8
Border (ANSI)
100
AcDbVertex
100
AcDb2dVertex
 10
0.380000002740875
 20
0.380000002740875
 30
0.0
  0
SEQEND
  5
D1
330
CE
100
AcDbEntity
  8
Border (ANSI)
  0
POLYLINE
  5
D5
330
CB
100
AcDbEntity
  8
Border (ANSI)
100
AcDb2dPolyline
 66
     1
 10
0.0
 20
0.0
 30
0.0
 70
   128
  0
VERTEX
  5
D6
330
D5
100
AcDbEntity
  8
Border (ANSI)
100
AcDbVertex
100
AcDb2dVertex
 10
5.500000105129451
 20
0.1299999947623005
 30
0.0
  0
VERTEX
  5
D7
330
D5
100
AcDbEntity
  8
Border (ANSI)
100
AcDbVertex
100
AcDb2dVertex
 10
5.500000105129451
 20
0.380000002740875
 30
0.0
  0
VERTEX
  5
D9
330
D5
100
AcDbEntity
  8
Border (ANSI)
100
AcDbVertex
100
AcDb2dVertex
 10
5.413397466103861
 20
0.2300000096869281
 30
0.0
  0
VERTEX
  5
DA
330
D5
100
AcDbEntity
  8
Border (ANSI)
100
AcDbVertex
100
AcDb2dVertex
 10
5.586602368692712
 20
0.2300000096869281
 30
0.0
  0
VERTEX
  5
DB
330
D5
100
AcDbEntity
  8
Border (ANSI)
100
AcDbVertex
100
AcDb2dVertex
 10
5.500000105129451
 20
0.380000002740875
 30
0.0
  0
SEQEND
  5
D8
330
D5
100
AcDbEntity
  8
Border (ANSI)
  0
POLYLINE
  5
DC
330
CB
100
AcDbEntity
  8
Border (ANSI)
100
AcDb2dPolyline
 66
     1
 10
0.0
 20
0.0
 30
0.0
 70
   128
  0
VERTEX
  5
DD
330
DC
100
AcDbEntity
  8
Border (ANSI)
100
AcDbVertex
100
AcDb2dVertex
 10
5.500000105129451
 20
8.369999983179287
 30
0.0
  0
VERTEX
  5
DE
330
DC
100
AcDbEntity
  8
Border (ANSI)
100
AcDbVertex
100
AcDb2dVertex
 10
5.500000105129451
 20
8.119999893068328
 30
0.0
  0
VERTEX
  5
E0
330
DC
100
AcDbEntity
  8
Border (ANSI)
100
AcDbVertex
100
AcDb2dVertex
 10
5.413397466103861
 20
8.270000097319835
 30
0.0
  0
VERTEX
  5
E1
330
DC
100
AcDbEntity
  8
Border (ANSI)
100
AcDbVertex
100
AcDb2dVertex
 10
5.586602368692712
 20
8.270000097319835
 30
0.0
  0
VERTEX
  5
E2
330
DC
100
AcDbEntity
  8
Border (ANSI)
100
AcDbVertex
100
AcDb2dVertex
 10
5.500000105129451
 20
8.119999893068328
 30
0.0
  0
SEQEND
  5
DF
330
DC
100
AcDbEntity
  8
Border (ANSI)
  0
POLYLINE
  5
E3
330
CB
100
AcDbEntity
  8
Border (ANSI)
100
AcDb2dPolyline
 66
     1
 10
0.0
 20
0.0
 30
0.0
 70
   128
  0
VERTEX
  5
E4
330
E3
100
AcDbEntity
  8
Border (ANSI)
100
AcDbVertex
100
AcDb2dVertex
 10
0.1299999947623005
 20
4.250000030036986
 30
0.0
  0
VERTEX
  5
E5
330
E3
100
AcDbEntity
  8
Border (ANSI)
100
AcDbVertex
100
AcDb2dVertex
 10
0.380000002740875
 20
4.250000030036986
 30
0.0
  0
VERTEX
  5
E7
330
E3
100
AcDbEntity
  8
Border (ANSI)
100
AcDbVertex
100
AcDb2dVertex
 10
0.2300000096869281
 20
4.336602669062576
 30
0.0
  0
VERTEX
  5
E8
330
E3
100
AcDbEntity
  8
Border (ANSI)
100
AcDbVertex
100
AcDb2dVertex
 10
0.2300000096869281
 20
4.163397391011395
 30
0.0
  0
VERTEX
  5
E9
330
E3
100
AcDbEntity
  8
Border (ANSI)
100
AcDbVertex
100
AcDb2dVertex
 10
0.380000002740875
 20
4.250000030036986
 30
0.0
  0
SEQEND
  5
E6
330
E3
100
AcDbEntity
  8
Border (ANSI)
  0
POLYLINE
  5
EA
330
CB
100
AcDbEntity
  8
Border (ANSI)
100
AcDb2dPolyline
 66
     1
 10
0.0
 20
0.0
 30
0.0
 70
   128
  0
VERTEX
  5
EB
330
EA
100
AcDbEntity
  8
Border (ANSI)
100
AcDbVertex
100
AcDb2dVertex
 10
10.87000013336422
 20
4.250000030036986
 30
0.0
  0
VERTEX
  5
EC
330
EA
100
AcDbEntity
  8
Border (ANSI)
100
AcDbVertex
100
AcDb2dVertex
 10
10.62000004325326
 20
4.250000030036986
 30
0.0
  0
VERTEX
  5
EE
330
EA
100
AcDbEntity
  8
Border (ANSI)
100
AcDbVertex
100
AcDb2dVertex
 10
10.77000024750476
 20
4.336602669062576
 30
0.0
  0
VERTEX
  5
EF
330
EA
100
AcDbEntity
  8
Border (ANSI)
100
AcDbVertex
100
AcDb2dVertex
 10
10.77000024750476
 20
4.163397391011395
 30
0.0
  0
VERTEX
  5
F0
330
EA
100
AcDbEntity
  8
Border (ANSI)
100
AcDbVertex
100
AcDb2dVertex
 10
10.62000004325326
 20
4.250000030036986
 30
0.0
  0
SEQEND
  5
ED
330
EA
100
AcDbEntity
  8
Border (ANSI)
  0
MTEXT
  5
F2
330
CB
100
AcDbEntity
  8
Border (ANSI)
100
AcDbMText
 10
8.24092395498058
 20
8.16
 30
0.0
 40
0.1200000014830762
 41
0.0
 71
     7
 72
     1
  1
1
  7
Text Style29
 73
     1
 44
1.0
1001
ACAD
1000
MTEXTBEGIN
1070
    73
1070
     1
1070
    44
1040
1.0
1070
    74
1070
     0
1000
MTEXTEND
  0
MTEXT
  5
F5
330
CB
100
AcDbEntity
  8
Border (ANSI)
100
AcDbMText
 10
8.24092395498058
 20
0.2199999985169238
 30
0.0
 40
0.1200000014830762
 41
0.0
 71
     7
 72
     1
  1
1
  7
Text Style29
 73
     1
 44
1.0
1001
ACAD
1000
MTEXTBEGIN
1070
    73
1070
     1
1070
    44
1040
1.0
1070
    74
1070
     0
1000
MTEXTEND
  0
MTEXT
  5
F6
330
CB
100
AcDbEntity
  8
Border (ANSI)
100
AcDbMText
 10
2.722276993858532
 20
8.16
 30
0.0
 40
0.1200000014830762
 41
0.0
 71
     7
 72
     1
  1
2
  7
Text Style29
 73
     1
 44
1.0
1001
ACAD
1000
MTEXTBEGIN
1070
    73
1070
     1
1070
    44
1040
1.0
1070
    74
1070
     0
1000
MTEXTEND
  0
MTEXT
  5
F7
330
CB
100
AcDbEntity
  8
Border (ANSI)
100
AcDbMText
 10
2.722276993858532
 20
0.2199999985169238
 30
0.0
 40
0.1200000014830762
 41
0.0
 71
     7
 72
     1
  1
2
  7
Text Style29
 73
     1
 44
1.0
1001
ACAD
1000
MTEXTBEGIN
1070
    73
1070
     1
1070
    44
1040
1.0
1070
    74
1070
     0
1000
MTEXTEND
  0
MTEXT
  5
F8
330
CB
100
AcDbEntity
  8
Border (ANSI)
100
AcDbMText
 10
0.2281865791448458
 20
2.064999999258461
 30
0.0
 40
0.1200000014830762
 41
0.0
 71
     7
 72
     1
  1
A
  7
Text Style29
 73
     1
 44
1.0
1001
ACAD
1000
MTEXTBEGIN
1070
    73
1070
     1
1070
    44
1040
1.0
1070
    74
1070
     0
1000
MTEXTEND
  0
MTEXT
  5
F9
330
CB
100
AcDbEntity
  8
Border (ANSI)
100
AcDbMText
 10
10.66818658062792
 20
2.064999999258461
 30
0.0
 40
0.1200000014830762
 41
0.0
 71
     7
 72
     1
  1
A
  7
Text Style29
 73
     1
 44
1.0
1001
ACAD
1000
MTEXTBEGIN
1070
    73
1070
     1
1070
    44
1040
1.0
1070
    74
1070
     0
1000
MTEXTEND
  0
MTEXT
  5
FA
330
CB
100
AcDbEntity
  8
Border (ANSI)
100
AcDbMText
 10
0.2554072225563169
 20
6.314999999258461
 30
0.0
 40
0.1200000014830762
 41
0.0
 71
     7
 72
     1
  1
B
  7
Text Style29
 73
     1
 44
1.0
1001
ACAD
1000
MTEXTBEGIN
1070
    73
1070
     1
1070
    44
1040
1.0
1070
    74
1070
     0
1000
MTEXTEND
  0
MTEXT
  5
FB
330
CB
100
AcDbEntity
  8
Border (ANSI)
100
AcDbMText
 10
10.69540722403939
 20
6.314999999258461
 30
0.0
 40
0.1200000014830762
 41
0.0
 71
     7
 72
     1
  1
B
  7
Text Style29
 73
     1
 44
1.0
1001
ACAD
1000
MTEXTBEGIN
1070
    73
1070
     1
1070
    44
1040
1.0
1070
    74
1070
     0
1000
MTEXTEND
  0
ENDBLK
  5
CD
330
CB
100
AcDbEntity
  8
0
100
AcDbBlockEnd
  0
BLOCK
  5
126
330
125
100
AcDbEntity
  8
0
100
AcDbBlockBegin
  2
Origin Indicator Symbol1
 70
     0
 10
0.0
 20
0.0
 30
0.0
  3
Origin Indicator Symbol1
  1

  0
CIRCLE
  5
128
330
125
100
AcDbEntity
  8
Dimension (ANSI)
100
AcDbCircle
 10
9.693648699452639
 20
3.19928067971269
 30
0.0
 40
0.0984251968503937
  0
LINE
  5
129
102
{ACAD_REACTORS
330
12B
102
}
330
125
100
AcDbEntity
  8
Dimension (ANSI)
100
AcDbLine
 10
9.693648699452639
 20
3.297705876563084
 30
0.0
 11
9.792073896303032
 21
3.19928067971269
 31
0.0
  0
ARC
  5
12A
102
{ACAD_REACTORS
330
12B
102
}
330
125
100
AcDbEntity
  8
Dimension (ANSI)
100
AcDbCircle
 10
9.693648699452639
 20
3.19928067971269
 30
0.0
 40
0.0984251968503937
100
AcDbArc
 50
0.0
 51
90.0
  0
HATCH
  5
12B
330
125
100
AcDbEntity
  8
Dimension (ANSI)
100
AcDbHatch
 10
0.0
 20
0.0
 30
0.0
210
0.0
220
0.0
230
1.0
  2
SOLID
 70
     1
 71
     1
 91
        1
 92
        0
 93
        2
 72
     1
 10
9.693648699452639
 20
3.297705876563084
 11
9.792073896303033
 21
3.199280679712691
 72
     2
 10
9.693648699452639
 20
3.19928067971269
 40
0.0984251968503937
 50
0.0
 51
90.0
 73
     1
 97
        2
330
129
330
12A
 75
     0
 76
     1
 98
        1
 10
0.0
 20
0.0
  0
LINE
  5
12C
102
{ACAD_REACTORS
330
12E
102
}
330
125
100
AcDbEntity
  8
Dimension (ANSI)
100
AcDbLine
 10
9.693648699452639
 20
3.100855482862297
 30
0.0
 11
9.595223502602244
 21
3.19928067971269
 31
0.0
  0
ARC
  5
12D
102
{ACAD_REACTORS
330
12E
102
}
330
125
100
AcDbEntity
  8
Dimension (ANSI)
100
AcDbCircle
 10
9.693648699452639
 20
3.19928067971269
 30
0.0
 40
0.0984251968503937
100
AcDbArc
 50
180.0
 51
270.0
  0
HATCH
  5
12E
330
125
100
AcDbEntity
  8
Dimension (ANSI)
100
AcDbHatch
 10
0.0
 20
0.0
 30
0.0
210
0.0
220
0.0
230
1.0
  2
SOLID
 70
     1
 71
     1
 91
        1
 92
        0
 93
        2
 72
     1
 10
9.693648699452639
 20
3.100855482862297
 11
9.595223502602244
 21
3.19928067971269
 72
     2
 10
9.693648699452639
 20
3.19928067971269
 40
0.0984251968503937
 50
180.0
 51
270.0
 73
     1
 97
        2
330
12C
330
12D
 75
     0
 76
     1
 98
        1
 10
0.0
 20
0.0
  0
POLYLINE
  5
12F
330
125
100
AcDbEntity
  8
Dimension (ANSI)
100
AcDb2dPolyline
 66
     1
 10
0.0
 20
0.0
 30
0.0
 70
   128
  0
VERTEX
  5
130
330
12F
100
AcDbEntity
  8
Dimension (ANSI)
100
AcDbVertex
100
AcDb2dVertex
 10
9.693648871474378
 20
3.199280716302826
 30
0.0
  0
VERTEX
  5
131
330
12F
100
AcDbEntity
  8
Dimension (ANSI)
100
AcDbVertex
100
AcDb2dVertex
 10
9.792074068324771
 20
3.199280716302826
 30
0.0
  0
VERTEX
  5
133
330
12F
100
AcDbEntity
  8
Dimension (ANSI)
100
AcDbVertex
100
AcDb2dVertex
 10
9.693648871474378
 20
3.29770591315322
 30
0.0
  0
VERTEX
  5
134
330
12F
100
AcDbEntity
  8
Dimension (ANSI)
100
AcDbVertex
100
AcDb2dVertex
 10
9.693648871474378
 20
3.199280716302826
 30
0.0
  0
SEQEND
  5
132
330
12F
100
AcDbEntity
  8
Dimension (ANSI)
  0
SOLID
  5
135
330
125
100
AcDbEntity
  8
Dimension (ANSI)
100
AcDbTrace
 10
9.693648871474378
 20
3.199280716302826
 30
0.0
 11
9.792074068324771
 21
3.199280716302826
 31
0.0
 12
9.693648871474378
 22
3.29770591315322
 32
0.0
 13
9.693648871474378
 23
3.199280716302826
 33
0.0
  0
POLYLINE
  5
136
330
125
100
AcDbEntity
  8
Dimension (ANSI)
100
AcDb2dPolyline
 66
     1
 10
0.0
 20
0.0
 30
0.0
 70
   128
  0
VERTEX
  5
137
330
136
100
AcDbEntity
  8
Dimension (ANSI)
100
AcDbVertex
100
AcDb2dVertex
 10
9.693648871474378
 20
3.199280716302826
 30
0.0
  0
VERTEX
  5
138
330
136
100
AcDbEntity
  8
Dimension (ANSI)
100
AcDbVertex
100
AcDb2dVertex
 10
9.693648871474378
 20
3.29770591315322
 30
0.0
  0
VERTEX
  5
13A
330
136
100
AcDbEntity
  8
Dimension (ANSI)
100
AcDbVertex
100
AcDb2dVertex
 10
9.693648871474378
 20
3.100855519452432
 30
0.0
  0
VERTEX
  5
13B
330
136
100
AcDbEntity
  8
Dimension (ANSI)
100
AcDbVertex
100
AcDb2dVertex
 10
9.693648871474378
 20
3.199280716302826
 30
0.0
  0
SEQEND
  5
139
330
136
100
AcDbEntity
  8
Dimension (ANSI)
  0
SOLID
  5
13C
330
125
100
AcDbEntity
  8
Dimension (ANSI)
100
AcDbTrace
 10
9.693648871474378
 20
3.199280716302826
 30
0.0
 11
9.693648871474378
 21
3.29770591315322
 31
0.0
 12
9.693648871474378
 22
3.100855519452432
 32
0.0
 13
9.693648871474378
 23
3.199280716302826
 33
0.0
  0
POLYLINE
  5
13D
330
125
100
AcDbEntity
  8
Dimension (ANSI)
100
AcDb2dPolyline
 66
     1
 10
0.0
 20
0.0
 30
0.0
 70
   128
  0
VERTEX
  5
13E
330
13D
100
AcDbEntity
  8
Dimension (ANSI)
100
AcDbVertex
100
AcDb2dVertex
 10
9.693648871474378
 20
3.199280716302826
 30
0.0
  0
VERTEX
  5
13F
330
13D
100
AcDbEntity
  8
Dimension (ANSI)
100
AcDbVertex
100
AcDb2dVertex
 10
9.693648871474378
 20
3.100855519452432
 30
0.0
  0
VERTEX
  5
141
330
13D
100
AcDbEntity
  8
Dimension (ANSI)
100
AcDbVertex
100
AcDb2dVertex
 10
9.595223674623984
 20
3.199280716302826
 30
0.0
  0
VERTEX
  5
142
330
13D
100
AcDbEntity
  8
Dimension (ANSI)
100
AcDbVertex
100
AcDb2dVertex
 10
9.693648871474378
 20
3.199280716302826
 30
0.0
  0
SEQEND
  5
140
330
13D
100
AcDbEntity
  8
Dimension (ANSI)
  0
SOLID
  5
143
330
125
100
AcDbEntity
  8
Dimension (ANSI)
100
AcDbTrace
 10
9.693648871474378
 20
3.199280716302826
 30
0.0
 11
9.693648871474378
 21
3.100855519452432
 31
0.0
 12
9.595223674623984
 22
3.199280716302826
 32
0.0
 13
9.693648871474378
 23
3.199280716302826
 33
0.0
  0
POLYLINE
  5
144
330
125
100
AcDbEntity
  8
Dimension (ANSI)
100
AcDb2dPolyline
 66
     1
 10
0.0
 20
0.0
 30
0.0
 70
   128
  0
VERTEX
  5
145
330
144
100
AcDbEntity
  8
Dimension (ANSI)
100
AcDbVertex
100
AcDb2dVertex
 10
9.693648871474378
 20
3.199280716302826
 30
0.0
  0
VERTEX
  5
146
330
144
100
AcDbEntity
  8
Dimension (ANSI)
100
AcDbVertex
100
AcDb2dVertex
 10
9.595223674623984
 20
3.199280716302826
 30
0.0
  0
VERTEX
  5
148
330
144
100
AcDbEntity
  8
Dimension (ANSI)
100
AcDbVertex
100
AcDb2dVertex
 10
9.693648871474378
 20
3.199280716302826
 30
0.0
  0
VERTEX
  5
149
330
144
100
AcDbEntity
  8
Dimension (ANSI)
100
AcDbVertex
100
AcDb2dVertex
 10
9.693648871474378
 20
3.199280716302826
 30
0.0
  0
SEQEND
  5
147
330
144
100
AcDbEntity
  8
Dimension (ANSI)
  0
SOLID
  5
14A
330
125
100
AcDbEntity
  8
Dimension (ANSI)
100
AcDbTrace
 10
9.693648871474378
 20
3.199280716302826
 30
0.0
 11
9.595223674623984
 21
3.199280716302826
 31
0.0
 12
9.693648871474378
 22
3.199280716302826
 32
0.0
 13
9.693648871474378
 23
3.199280716302826
 33
0.0
  0
ENDBLK
  5
127
330
125
100
AcDbEntity
  8
0
100
AcDbBlockEnd
  0
BLOCK
  5
197
330
196
100
AcDbEntity
  8
0
100
AcDbBlockBegin
  2
Origin Indicator Symbol2
 70
     0
 10
0.0
 20
0.0
 30
0.0
  3
Origin Indicator Symbol2
  1

  0
CIRCLE
  5
199
330
196
100
AcDbEntity
  8
Dimension (ANSI)
100
AcDbCircle
 10
9.693648699452914
 20
5.323161596661823
 30
0.0
 40
0.0984251968503937
  0
LINE
  5
19A
102
{ACAD_REACTORS
330
19C
102
}
330
196
100
AcDbEntity
  8
Dimension (ANSI)
100
AcDbLine
 10
9.693648699452914
 20
5.421586793512217
 30
0.0
 11
9.792073896303307
 21
5.323161596661823
 31
0.0
  0
ARC
  5
19B
102
{ACAD_REACTORS
330
19C
102
}
330
196
100
AcDbEntity
  8
Dimension (ANSI)
100
AcDbCircle
 10
9.693648699452914
 20
5.323161596661823
 30
0.0
 40
0.0984251968503937
100
AcDbArc
 50
0.0
 51
90.0
  0
HATCH
  5
19C
330
196
100
AcDbEntity
  8
Dimension (ANSI)
100
AcDbHatch
 10
0.0
 20
0.0
 30
0.0
210
0.0
220
0.0
230
1.0
  2
SOLID
 70
     1
 71
     1
 91
        1
 92
        0
 93
        2
 72
     1
 10
9.693648699452914
 20
5.421586793512217
 11
9.792073896303309
 21
5.323161596661823
 72
     2
 10
9.693648699452914
 20
5.323161596661823
 40
0.0984251968503937
 50
0.0
 51
90.0
 73
     1
 97
        2
330
19A
330
19B
 75
     0
 76
     1
 98
        1
 10
0.0
 20
0.0
  0
LINE
  5
19D
102
{ACAD_REACTORS
330
19F
102
}
330
196
100
AcDbEntity
  8
Dimension (ANSI)
100
AcDbLine
 10
9.693648699452914
 20
5.224736399811429
 30
0.0
 11
9.59522350260252
 21
5.323161596661823
 31
0.0
  0
ARC
  5
19E
102
{ACAD_REACTORS
330
19F
102
}
330
196
100
AcDbEntity
  8
Dimension (ANSI)
100
AcDbCircle
 10
9.693648699452914
 20
5.323161596661823
 30
0.0
 40
0.0984251968503937
100
AcDbArc
 50
180.0
 51
270.0
  0
HATCH
  5
19F
330
196
100
AcDbEntity
  8
Dimension (ANSI)
100
AcDbHatch
 10
0.0
 20
0.0
 30
0.0
210
0.0
220
0.0
230
1.0
  2
SOLID
 70
     1
 71
     1
 91
        1
 92
        0
 93
        2
 72
     1
 10
9.693648699452914
 20
5.224736399811429
 11
9.59522350260252
 21
5.323161596661822
 72
     2
 10
9.693648699452914
 20
5.323161596661823
 40
0.0984251968503937
 50
180.0
 51
270.0
 73
     1
 97
        2
330
19D
330
19E
 75
     0
 76
     1
 98
        1
 10
0.0
 20
0.0
  0
POLYLINE
  5
1A0
330
196
100
AcDbEntity
  8
Dimension (ANSI)
100
AcDb2dPolyline
 66
     1
 10
0.0
 20
0.0
 30
0.0
 70
   128
  0
VERTEX
  5
1A1
330
1A0
100
AcDbEntity
  8
Dimension (ANSI)
100
AcDbVertex
100
AcDb2dVertex
 10
9.693648871474378
 20
5.323161478117694
 30
0.0
  0
VERTEX
  5
1A2
330
1A0
100
AcDbEntity
  8
Dimension (ANSI)
100
AcDbVertex
100
AcDb2dVertex
 10
9.792074068324771
 20
5.323161478117694
 30
0.0
  0
VERTEX
  5
1A4
330
1A0
100
AcDbEntity
  8
Dimension (ANSI)
100
AcDbVertex
100
AcDb2dVertex
 10
9.693648871474378
 20
5.421586674968088
 30
0.0
  0
VERTEX
  5
1A5
330
1A0
100
AcDbEntity
  8
Dimension (ANSI)
100
AcDbVertex
100
AcDb2dVertex
 10
9.693648871474378
 20
5.323161478117694
 30
0.0
  0
SEQEND
  5
1A3
330
1A0
100
AcDbEntity
  8
Dimension (ANSI)
  0
SOLID
  5
1A6
330
196
100
AcDbEntity
  8
Dimension (ANSI)
100
AcDbTrace
 10
9.693648871474378
 20
5.323161478117694
 30
0.0
 11
9.792074068324771
 21
5.323161478117694
 31
0.0
 12
9.693648871474378
 22
5.421586674968088
 32
0.0
 13
9.693648871474378
 23
5.323161478117694
 33
0.0
  0
POLYLINE
  5
1A7
330
196
100
AcDbEntity
  8
Dimension (ANSI)
100
AcDb2dPolyline
 66
     1
 10
0.0
 20
0.0
 30
0.0
 70
   128
  0
VERTEX
  5
1A8
330
1A7
100
AcDbEntity
  8
Dimension (ANSI)
100
AcDbVertex
100
AcDb2dVertex
 10
9.693648871474378
 20
5.323161478117694
 30
0.0
  0
VERTEX
  5
1A9
330
1A7
100
AcDbEntity
  8
Dimension (ANSI)
100
AcDbVertex
100
AcDb2dVertex
 10
9.693648871474378
 20
5.421586674968088
 30
0.0
  0
VERTEX
  5
1AB
330
1A7
100
AcDbEntity
  8
Dimension (ANSI)
100
AcDbVertex
100
AcDb2dVertex
 10
9.693648871474378
 20
5.224736281267301
 30
0.0
  0
VERTEX
  5
1AC
330
1A7
100
AcDbEntity
  8
Dimension (ANSI)
100
AcDbVertex
100
AcDb2dVertex
 10
9.693648871474378
 20
5.323161478117694
 30
0.0
  0
SEQEND
  5
1AA
330
1A7
100
AcDbEntity
  8
Dimension (ANSI)
  0
SOLID
  5
1AD
330
196
100
AcDbEntity
  8
Dimension (ANSI)
100
AcDbTrace
 10
9.693648871474378
 20
5.323161478117694
 30
0.0
 11
9.693648871474378
 21
5.421586674968088
 31
0.0
 12
9.693648871474378
 22
5.224736281267301
 32
0.0
 13
9.693648871474378
 23
5.323161478117694
 33
0.0
  0
POLYLINE
  5
1AE
330
196
100
AcDbEntity
  8
Dimension (ANSI)
100
AcDb2dPolyline
 66
     1
 10
0.0
 20
0.0
 30
0.0
 70
   128
  0
VERTEX
  5
1AF
330
1AE
100
AcDbEntity
  8
Dimension (ANSI)
100
AcDbVertex
100
AcDb2dVertex
 10
9.693648871474378
 20
5.323161478117694
 30
0.0
  0
VERTEX
  5
1B0
330
1AE
100
AcDbEntity
  8
Dimension (ANSI)
100
AcDbVertex
100
AcDb2dVertex
 10
9.693648871474378
 20
5.224736281267301
 30
0.0
  0
VERTEX
  5
1B2
330
1AE
100
AcDbEntity
  8
Dimension (ANSI)
100
AcDbVertex
100
AcDb2dVertex
 10
9.595223674623984
 20
5.323161478117694
 30
0.0
  0
VERTEX
  5
1B3
330
1AE
100
AcDbEntity
  8
Dimension (ANSI)
100
AcDbVertex
100
AcDb2dVertex
 10
9.693648871474378
 20
5.323161478117694
 30
0.0
  0
SEQEND
  5
1B1
330
1AE
100
AcDbEntity
  8
Dimension (ANSI)
  0
SOLID
  5
1B4
330
196
100
AcDbEntity
  8
Dimension (ANSI)
100
AcDbTrace
 10
9.693648871474378
 20
5.323161478117694
 30
0.0
 11
9.693648871474378
 21
5.224736281267301
 31
0.0
 12
9.595223674623984
 22
5.323161478117694
 32
0.0
 13
9.693648871474378
 23
5.323161478117694
 33
0.0
  0
POLYLINE
  5
1B5
330
196
100
AcDbEntity
  8
Dimension (ANSI)
100
AcDb2dPolyline
 66
     1
 10
0.0
 20
0.0
 30
0.0
 70
   128
  0
VERTEX
  5
1B6
330
1B5
100
AcDbEntity
  8
Dimension (ANSI)
100
AcDbVertex
100
AcDb2dVertex
 10
9.693648871474378
 20
5.323161478117694
 30
0.0
  0
VERTEX
  5
1B7
330
1B5
100
AcDbEntity
  8
Dimension (ANSI)
100
AcDbVertex
100
AcDb2dVertex
 10
9.595223674623984
 20
5.323161478117694
 30
0.0
  0
VERTEX
  5
1B9
330
1B5
100
AcDbEntity
  8
Dimension (ANSI)
100
AcDbVertex
100
AcDb2dVertex
 10
9.693648871474378
 20
5.323161478117694
 30
0.0
  0
VERTEX
  5
1BA
330
1B5
100
AcDbEntity
  8
Dimension (ANSI)
100
AcDbVertex
100
AcDb2dVertex
 10
9.693648871474378
 20
5.323161478117694
 30
0.0
  0
SEQEND
  5
1B8
330
1B5
100
AcDbEntity
  8
Dimension (ANSI)
  0
SOLID
  5
1BB
330
196
100
AcDbEntity
  8
Dimension (ANSI)
100
AcDbTrace
 10
9.693648871474378
 20
5.323161478117694
 30
0.0
 11
9.595223674623984
 21
5.323161478117694
 31
0.0
 12
9.693648871474378
 22
5.323161478117694
 32
0.0
 13
9.693648871474378
 23
5.323161478117694
 33
0.0
  0
ENDBLK
  5
198
330
196
100
AcDbEntity
  8
0
100
AcDbBlockEnd
  0
BLOCK
  5
1BE
330
1BD
100
AcDbEntity
  8
0
100
AcDbBlockBegin
  2
Hole Table1
 70
     0
 10
0.0
 20
0.0
 30
0.0
  3
Hole Table1
  1

  0
MTEXT
  5
1C0
330
1BD
100
AcDbEntity
  8
Symbol (ANSI)
100
AcDbMText
 10
3.041743311988176
 20
7.5302487838628
 30
0.0
 40
0.1200000014830762
 41
0.0
 71
     7
 72
     1
  1
Hole Table
  7
Text Style29
 73
     1
 44
1.0
1001
ACAD
1000
MTEXTBEGIN
1070
    73
1070
     1
1070
    44
1040
1.0
1070
    74
1070
     0
1000
MTEXTEND
  0
LINE
  5
1C1
330
1BD
100
AcDbEntity
  8
Symbol (ANSI)
100
AcDbLine
 10
0.6726520870090546
 20
7.468070475733326
 30
0.0
 11
1.283948695029272
 21
7.468070475733326
 31
0.0
  0
LINE
  5
1C2
330
1BD
100
AcDbEntity
  8
Symbol (ANSI)
100
AcDbLine
 10
1.283948695029272
 20
7.468070475733326
 30
0.0
 11
1.283948695029272
 21
7.215837037119386
 31
0.0
  0
LINE
  5
1C3
330
1BD
100
AcDbEntity
  8
Symbol (ANSI)
100
AcDbLine
 10
0.6726520870090546
 20
7.215837037119386
 30
0.0
 11
1.283948695029272
 21
7.215837037119386
 31
0.0
  0
MTEXT
  5
1C4
330
1BD
100
AcDbEntity
  8
Symbol (ANSI)
100
AcDbMText
 10
0.8008875178411472
 20
7.279425393860378
 30
0.0
 40
0.1200000014830762
 41
0.0
 71
     7
 72
     1
  1
HOLE
  7
Text Style29
 73
     1
 44
1.0
1001
ACAD
1000
MTEXTBEGIN
1070
    73
1070
     1
1070
    44
1040
1.0
1070
    74
1070
     0
1000
MTEXTEND
  0
LINE
  5
1C5
330
1BD
100
AcDbEntity
  8
Symbol (ANSI)
100
AcDbLine
 10
1.283948695029272
 20
7.468070475733326
 30
0.0
 11
1.978091033062771
 21
7.468070475733326
 31
0.0
  0
LINE
  5
1C6
330
1BD
100
AcDbEntity
  8
Symbol (ANSI)
100
AcDbLine
 10
1.283948695029272
 20
7.468070475733326
 30
0.0
 11
1.283948695029272
 21
7.215837037119386
 31
0.0
  0
LINE
  5
1C7
330
1BD
100
AcDbEntity
  8
Symbol (ANSI)
100
AcDbLine
 10
1.978091033062771
 20
7.468070475733326
 30
0.0
 11
1.978091033062771
 21
7.215837037119386
 31
0.0
  0
LINE
  5
1C8
330
1BD
100
AcDbEntity
  8
Symbol (ANSI)
100
AcDbLine
 10
1.283948695029272
 20
7.215837037119386
 30
0.0
 11
1.978091033062771
 21
7.215837037119386
 31
0.0
  0
MTEXT
  5
1C9
330
1BD
100
AcDbEntity
  8
Symbol (ANSI)
100
AcDbMText
 10
1.434132135309865
 20
7.28195375688793
 30
0.0
 40
0.1200000014830762
 41
0.0
 71
     7
 72
     1
  1
XDIM
  7
Text Style29
 73
     1
 44
1.0
1001
ACAD
1000
MTEXTBEGIN
1070
    73
1070
     1
1070
    44
1040
1.0
1070
    74
1070
     0
1000
MTEXTEND
  0
LINE
  5
1CA
330
1BD
100
AcDbEntity
  8
Symbol (ANSI)
100
AcDbLine
 10
1.978091033062771
 20
7.468070475733326
 30
0.0
 11
2.724028949561837
 21
7.468070475733326
 31
0.0
  0
LINE
  5
1CB
330
1BD
100
AcDbEntity
  8
Symbol (ANSI)
100
AcDbLine
 10
1.978091033062771
 20
7.468070475733326
 30
0.0
 11
1.978091033062771
 21
7.215837037119386
 31
0.0
  0
LINE
  5
1CC
330
1BD
100
AcDbEntity
  8
Symbol (ANSI)
100
AcDbLine
 10
2.724028949561837
 20
7.468070475733326
 30
0.0
 11
2.724028949561837
 21
7.215837037119386
 31
0.0
  0
LINE
  5
1CD
330
1BD
100
AcDbEntity
  8
Symbol (ANSI)
100
AcDbLine
 10
1.978091033062771
 20
7.215837037119386
 30
0.0
 11
2.724028949561837
 21
7.215837037119386
 31
0.0
  0
MTEXT
  5
1CE
330
1BD
100
AcDbEntity
  8
Symbol (ANSI)
100
AcDbMText
 10
2.151436831776077
 20
7.28195375688793
 30
0.0
 40
0.1200000014830762
 41
0.0
 71
     7
 72
     1
  1
YDIM
  7
Text Style29
 73
     1
 44
1.0
1001
ACAD
1000
MTEXTBEGIN
1070
    73
1070
     1
1070
    44
1040
1.0
1070
    74
1070
     0
1000
MTEXTEND
  0
LINE
  5
1CF
330
1BD
100
AcDbEntity
  8
Symbol (ANSI)
100
AcDbLine
 10
2.724028949561837
 20
7.468070475733326
 30
0.0
 11
6.138691071639831
 21
7.468070475733326
 31
0.0
  0
LINE
  5
1D0
330
1BD
100
AcDbEntity
  8
Symbol (ANSI)
100
AcDbLine
 10
2.724028949561837
 20
7.468070475733326
 30
0.0
 11
2.724028949561837
 21
7.215837037119386
 31
0.0
  0
LINE
  5
1D1
330
1BD
100
AcDbEntity
  8
Symbol (ANSI)
100
AcDbLine
 10
2.724028949561837
 20
7.215837037119386
 30
0.0
 11
6.138691071639831
 21
7.215837037119386
 31
0.0
  0
MTEXT
  5
1D2
330
1BD
100
AcDbEntity
  8
Symbol (ANSI)
100
AcDbMText
 10
3.937707255719584
 20
7.279425393860378
 30
0.0
 40
0.1200000014830762
 41
0.0
 71
     7
 72
     1
  1
DESCRIPTION
  7
Text Style29
 73
     1
 44
1.0
1001
ACAD
1000
MTEXTBEGIN
1070
    73
1070
     1
1070
    44
1040
1.0
1070
    74
1070
     0
1000
MTEXTEND
  0
LINE
  5
1D3
330
1BD
100
AcDbEntity
  8
Symbol (ANSI)
100
AcDbLine
 10
0.6726520870090546
 20
7.215837037119386
 30
0.0
 11
1.283948695029272
 21
7.215837037119386
 31
0.0
  0
LINE
  5
1D4
330
1BD
100
AcDbEntity
  8
Symbol (ANSI)
100
AcDbLine
 10
1.283948695029272
 20
7.215837037119386
 30
0.0
 11
1.283948695029272
 21
6.814657266843848
 31
0.0
  0
LINE
  5
1D5
330
1BD
100
AcDbEntity
  8
Symbol (ANSI)
100
AcDbLine
 10
0.6726520870090546
 20
6.814657266843848
 30
0.0
 11
1.283948695029272
 21
6.814657266843848
 31
0.0
  0
MTEXT
  5
1D6
330
1BD
100
AcDbEntity
  8
Symbol (ANSI)
100
AcDbMText
 10
0.9692243459997435
 20
6.955052662979533
 30
0.0
 40
0.1200000014830762
 41
0.0
 71
     7
 72
     1
  1
1
  7
Text Style29
 73
     1
 44
1.0
1001
ACAD
1000
MTEXTBEGIN
1070
    73
1070
     1
1070
    44
1040
1.0
1070
    74
1070
     0
1000
MTEXTEND
  0
LINE
  5
1D7
330
1BD
100
AcDbEntity
  8
Symbol (ANSI)
100
AcDbLine
 10
1.283948695029272
 20
7.215837037119386
 30
0.0
 11
1.978091033062771
 21
7.215837037119386
 31
0.0
  0
LINE
  5
1D8
330
1BD
100
AcDbEntity
  8
Symbol (ANSI)
100
AcDbLine
 10
1.283948695029272
 20
7.215837037119386
 30
0.0
 11
1.283948695029272
 21
6.814657266843848
 31
0.0
  0
LINE
  5
1D9
330
1BD
100
AcDbEntity
  8
Symbol (ANSI)
100
AcDbLine
 10
1.978091033062771
 20
7.215837037119386
 30
0.0
 11
1.978091033062771
 21
6.814657266843848
 31
0.0
  0
LINE
  5
1DA
330
1BD
100
AcDbEntity
  8
Symbol (ANSI)
100
AcDbLine
 10
1.283948695029272
 20
6.814657266843848
 30
0.0
 11
1.978091033062771
 21
6.814657266843848
 31
0.0
  0
MTEXT
  5
1DB
330
1BD
100
AcDbEntity
  8
Symbol (ANSI)
100
AcDbMText
 10
1.410397096432393
 20
6.952767411781554
 30
0.0
 40
0.1200000014830762
 41
0.0
 71
     7
 72
     1
  1
-0.467
  7
Text Style29
 73
     1
 44
1.0
1001
ACAD
1000
MTEXTBEGIN
1070
    73
1070
     1
1070
    44
1040
1.0
1070
    74
1070
     0
1000
MTEXTEND
  0
LINE
  5
1DC
330
1BD
100
AcDbEntity
  8
Symbol (ANSI)
100
AcDbLine
 10
1.978091033062771
 20
7.215837037119386
 30
0.0
 11
2.724028949561837
 21
7.215837037119386
 31
0.0
  0
LINE
  5
1DD
330
1BD
100
AcDbEntity
  8
Symbol (ANSI)
100
AcDbLine
 10
1.978091033062771
 20
7.215837037119386
 30
0.0
 11
1.978091033062771
 21
6.814657266843848
 31
0.0
  0
LINE
  5
1DE
330
1BD
100
AcDbEntity
  8
Symbol (ANSI)
100
AcDbLine
 10
2.724028949561837
 20
7.215837037119386
 30
0.0
 11
2.724028949561837
 21
6.814657266843848
 31
0.0
  0
LINE
  5
1DF
330
1BD
100
AcDbEntity
  8
Symbol (ANSI)
100
AcDbLine
 10
1.978091033062771
 20
6.814657266843848
 30
0.0
 11
2.724028949561837
 21
6.814657266843848
 31
0.0
  0
MTEXT
  5
1E0
330
1BD
100
AcDbEntity
  8
Symbol (ANSI)
100
AcDbMText
 10
2.15923518435551
 20
6.952767411781554
 30
0.0
 40
0.1200000014830762
 41
0.0
 71
     7
 72
     1
  1
0.099
  7
Text Style29
 73
     1
 44
1.0
1001
ACAD
1000
MTEXTBEGIN
1070
    73
1070
     1
1070
    44
1040
1.0
1070
    74
1070
     0
1000
MTEXTEND
  0
MTEXT
  5
1E1
330
1BD
100
AcDbEntity
  8
Symbol (ANSI)
100
AcDbMText
 10
3.611651011149144
 20
6.957505838592843
 30
0.0
 40
0.1200000014830762
 41
0.0
 71
     7
 72
     1
  1
DRILL 
  7
Text Style29
 73
     1
 44
1.0
1001
ACAD
1000
MTEXTBEGIN
1070
    73
1070
     1
1070
    44
1040
1.0
1070
    74
1070
     0
1000
MTEXTEND
  0
MTEXT
  5
1E3
330
1BD
100
AcDbEntity
  8
Symbol (ANSI)
100
AcDbMText
 10
4.093034595764897
 20
6.92739000813932
 30
0.0
 40
0.1200000014830762
 41
0.0
 71
     7
 72
     1
  1
n
  7
Text Style6
 73
     1
 44
1.0
1001
ACAD
1000
MTEXTBEGIN
1070
    73
1070
     1
1070
    44
1040
1.0
1070
    74
1070
     0
1000
MTEXTEND
  0
MTEXT
  5
1E5
330
1BD
100
AcDbEntity
  8
Symbol (ANSI)
100
AcDbMText
 10
4.22693665318357
 20
6.954782986101634
 30
0.0
 40
0.1200000014830762
 41
0.0
 71
     7
 72
     1
  1
0.089 in THRU
  7
Text Style29
 73
     1
 44
1.0
1001
ACAD
1000
MTEXTBEGIN
1070
    73
1070
     1
1070
    44
1040
1.0
1070
    74
1070
     0
1000
MTEXTEND
  0
LINE
  5
1E6
330
1BD
100
AcDbEntity
  8
Symbol (ANSI)
100
AcDbLine
 10
0.6726520870090546
 20
6.814657266843848
 30
0.0
 11
1.283948695029272
 21
6.814657266843848
 31
0.0
  0
LINE
  5
1E7
330
1BD
100
AcDbEntity
  8
Symbol (ANSI)
100
AcDbLine
 10
1.283948695029272
 20
6.814657266843848
 30
0.0
 11
1.283948695029272
 21
6.39275926424385
 31
0.0
  0
LINE
  5
1E8
330
1BD
100
AcDbEntity
  8
Symbol (ANSI)
100
AcDbLine
 10
0.6726520870090546
 20
6.39275926424385
 30
0.0
 11
1.283948695029272
 21
6.39275926424385
 31
0.0
  0
MTEXT
  5
1E9
330
1BD
100
AcDbEntity
  8
Symbol (ANSI)
100
AcDbMText
 10
0.9505773848776964
 20
6.542444084491648
 30
0.0
 40
0.1200000014830762
 41
0.0
 71
     7
 72
     1
  1
2
  7
Text Style29
 73
     1
 44
1.0
1001
ACAD
1000
MTEXTBEGIN
1070
    73
1070
     1
1070
    44
1040
1.0
1070
    74
1070
     0
1000
MTEXTEND
  0
LINE
  5
1EA
330
1BD
100
AcDbEntity
  8
Symbol (ANSI)
100
AcDbLine
 10
1.283948695029272
 20
6.814657266843848
 30
0.0
 11
1.978091033062771
 21
6.814657266843848
 31
0.0
  0
LINE
  5
1EB
330
1BD
100
AcDbEntity
  8
Symbol (ANSI)
100
AcDbLine
 10
1.283948695029272
 20
6.814657266843848
 30
0.0
 11
1.283948695029272
 21
6.39275926424385
 31
0.0
  0
LINE
  5
1EC
330
1BD
100
AcDbEntity
  8
Symbol (ANSI)
100
AcDbLine
 10
1.978091033062771
 20
6.814657266843848
 30
0.0
 11
1.978091033062771
 21
6.39275926424385
 31
0.0
  0
LINE
  5
1ED
330
1BD
100
AcDbEntity
  8
Symbol (ANSI)
100
AcDbLine
 10
1.283948695029272
 20
6.39275926424385
 30
0.0
 11
1.978091033062771
 21
6.39275926424385
 31
0.0
  0
MTEXT
  5
1EE
330
1BD
100
AcDbEntity
  8
Symbol (ANSI)
100
AcDbMText
 10
1.410397096432393
 20
6.541179902977872
 30
0.0
 40
0.1200000014830762
 41
0.0
 71
     7
 72
     1
  1
-0.269
  7
Text Style29
 73
     1
 44
1.0
1001
ACAD
1000
MTEXTBEGIN
1070
    73
1070
     1
1070
    44
1040
1.0
1070
    74
1070
     0
1000
MTEXTEND
  0
LINE
  5
1EF
330
1BD
100
AcDbEntity
  8
Symbol (ANSI)
100
AcDbLine
 10
1.978091033062771
 20
6.814657266843848
 30
0.0
 11
2.724028949561837
 21
6.814657266843848
 31
0.0
  0
LINE
  5
1F0
330
1BD
100
AcDbEntity
  8
Symbol (ANSI)
100
AcDbLine
 10
1.978091033062771
 20
6.814657266843848
 30
0.0
 11
1.978091033062771
 21
6.39275926424385
 31
0.0
  0
LINE
  5
1F1
330
1BD
100
AcDbEntity
  8
Symbol (ANSI)
100
AcDbLine
 10
2.724028949561837
 20
6.814657266843848
 30
0.0
 11
2.724028949561837
 21
6.39275926424385
 31
0.0
  0
LINE
  5
1F2
330
1BD
100
AcDbEntity
  8
Symbol (ANSI)
100
AcDbLine
 10
1.978091033062771
 20
6.39275926424385
 30
0.0
 11
2.724028949561837
 21
6.39275926424385
 31
0.0
  0
MTEXT
  5
1F3
330
1BD
100
AcDbEntity
  8
Symbol (ANSI)
100
AcDbMText
 10
2.15923518435551
 20
6.541228525343786
 30
0.0
 40
0.1200000014830762
 41
0.0
 71
     7
 72
     1
  1
0.099
  7
Text Style29
 73
     1
 44
1.0
1001
ACAD
1000
MTEXTBEGIN
1070
    73
1070
     1
1070
    44
1040
1.0
1070
    74
1070
     0
1000
MTEXTEND
  0
LINE
  5
1F4
330
1BD
100
AcDbEntity
  8
Symbol (ANSI)
100
AcDbLine
 10
0.6726520870090546
 20
6.39275926424385
 30
0.0
 11
1.283948695029272
 21
6.39275926424385
 31
0.0
  0
LINE
  5
1F5
330
1BD
100
AcDbEntity
  8
Symbol (ANSI)
100
AcDbLine
 10
1.283948695029272
 20
6.39275926424385
 30
0.0
 11
1.283948695029272
 21
6.050994672883088
 31
0.0
  0
LINE
  5
1F6
330
1BD
100
AcDbEntity
  8
Symbol (ANSI)
100
AcDbLine
 10
0.6726520870090546
 20
6.050994672883088
 30
0.0
 11
1.283948695029272
 21
6.050994672883088
 31
0.0
  0
MTEXT
  5
1F7
330
1BD
100
AcDbEntity
  8
Symbol (ANSI)
100
AcDbMText
 10
0.948655017751712
 20
6.15934860599749
 30
0.0
 40
0.1200000014830762
 41
0.0
 71
     7
 72
     1
  1
3
  7
Text Style29
 73
     1
 44
1.0
1001
ACAD
1000
MTEXTBEGIN
1070
    73
1070
     1
1070
    44
1040
1.0
1070
    74
1070
     0
1000
MTEXTEND
  0
LINE
  5
1F8
330
1BD
100
AcDbEntity
  8
Symbol (ANSI)
100
AcDbLine
 10
1.283948695029272
 20
6.39275926424385
 30
0.0
 11
1.978091033062771
 21
6.39275926424385
 31
0.0
  0
LINE
  5
1F9
330
1BD
100
AcDbEntity
  8
Symbol (ANSI)
100
AcDbLine
 10
1.283948695029272
 20
6.39275926424385
 30
0.0
 11
1.283948695029272
 21
6.050994672883088
 31
0.0
  0
LINE
  5
1FA
330
1BD
100
AcDbEntity
  8
Symbol (ANSI)
100
AcDbLine
 10
1.978091033062771
 20
6.39275926424385
 30
0.0
 11
1.978091033062771
 21
6.050994672883088
 31
0.0
  0
LINE
  5
1FB
330
1BD
100
AcDbEntity
  8
Symbol (ANSI)
100
AcDbLine
 10
1.283948695029272
 20
6.050994672883088
 30
0.0
 11
1.978091033062771
 21
6.050994672883088
 31
0.0
  0
MTEXT
  5
1FC
330
1BD
100
AcDbEntity
  8
Symbol (ANSI)
100
AcDbMText
 10
1.365372780290468
 20
6.159154116533833
 30
0.0
 40
0.1200000014830762
 41
0.0
 71
     7
 72
     1
  1
-0.6851
  7
Text Style29
 73
     1
 44
1.0
1001
ACAD
1000
MTEXTBEGIN
1070
    73
1070
     1
1070
    44
1040
1.0
1070
    74
1070
     0
1000
MTEXTEND
  0
LINE
  5
1FD
330
1BD
100
AcDbEntity
  8
Symbol (ANSI)
100
AcDbLine
 10
1.978091033062771
 20
6.39275926424385
 30
0.0
 11
2.724028949561837
 21
6.39275926424385
 31
0.0
  0
LINE
  5
1FE
330
1BD
100
AcDbEntity
  8
Symbol (ANSI)
100
AcDbLine
 10
1.978091033062771
 20
6.39275926424385
 30
0.0
 11
1.978091033062771
 21
6.050994672883088
 31
0.0
  0
LINE
  5
1FF
330
1BD
100
AcDbEntity
  8
Symbol (ANSI)
100
AcDbLine
 10
2.724028949561837
 20
6.39275926424385
 30
0.0
 11
2.724028949561837
 21
6.050994672883088
 31
0.0
  0
LINE
  5
200
330
1BD
100
AcDbEntity
  8
Symbol (ANSI)
100
AcDbLine
 10
1.978091033062771
 20
6.050994672883088
 30
0.0
 11
2.724028949561837
 21
6.050994672883088
 31
0.0
  0
MTEXT
  5
201
330
1BD
100
AcDbEntity
  8
Symbol (ANSI)
100
AcDbMText
 10
2.114210868213585
 20
6.159154116533833
 30
0.0
 40
0.1200000014830762
 41
0.0
 71
     7
 72
     1
  1
0.3680
  7
Text Style29
 73
     1
 44
1.0
1001
ACAD
1000
MTEXTBEGIN
1070
    73
1070
     1
1070
    44
1040
1.0
1070
    74
1070
     0
1000
MTEXTEND
  0
MTEXT
  5
202
330
1BD
100
AcDbEntity
  8
Symbol (ANSI)
100
AcDbMText
 10
3.530068872526305
 20
6.164135655174694
 30
0.0
 40
0.1200000014830762
 41
0.0
 71
     7
 72
     1
  1
REAM 
  7
Text Style29
 73
     1
 44
1.0
1001
ACAD
1000
MTEXTBEGIN
1070
    73
1070
     1
1070
    44
1040
1.0
1070
    74
1070
     0
1000
MTEXTEND
  0
MTEXT
  5
203
330
1BD
100
AcDbEntity
  8
Symbol (ANSI)
100
AcDbMText
 10
3.992586976944361
 20
6.134019824721171
 30
0.0
 40
0.1200000014830762
 41
0.0
 71
     7
 72
     1
  1
n
  7
Text Style6
 73
     1
 44
1.0
1001
ACAD
1000
MTEXTBEGIN
1070
    73
1070
     1
1070
    44
1040
1.0
1070
    74
1070
     0
1000
MTEXTEND
  0
MTEXT
  5
204
330
1BD
100
AcDbEntity
  8
Symbol (ANSI)
100
AcDbMText
 10
4.126489034363034
 20
6.161607292147143
 30
0.0
 40
0.1200000014830762
 41
0.0
 71
     7
 72
     1
  1
0.0945 
  7
Text Style29
 73
     1
 44
1.0
1001
ACAD
1000
MTEXTBEGIN
1070
    73
1070
     1
1070
    44
1040
1.0
1070
    74
1070
     0
1000
MTEXTEND
  0
MTEXT
  5
205
330
1BD
100
AcDbEntity
  8
Symbol (ANSI)
100
AcDbMText
 10
4.685368419207356
 20
6.156027546975669
 30
0.0
 40
0.1200000014830762
 41
0.0
 71
     7
 72
     1
  1
x
  7
Text Style6
 73
     1
 44
1.0
1001
ACAD
1000
MTEXTBEGIN
1070
    73
1070
     1
1070
    44
1040
1.0
1070
    74
1070
     0
1000
MTEXTEND
  0
MTEXT
  5
206
330
1BD
100
AcDbEntity
  8
Symbol (ANSI)
100
AcDbMText
 10
4.804914111271987
 20
6.161607292147143
 30
0.0
 40
0.1200000014830762
 41
0.0
 71
     7
 72
     1
  1
 0.25**
  7
Text Style29
 73
     1
 44
1.0
1001
ACAD
1000
MTEXTBEGIN
1070
    73
1070
     1
1070
    44
1040
1.0
1070
    74
1070
     0
1000
MTEXTEND
  0
LINE
  5
207
330
1BD
100
AcDbEntity
  8
Symbol (ANSI)
100
AcDbLine
 10
2.724028949561837
 20
6.39275926424385
 30
0.0
 11
6.138691071639831
 21
6.39275926424385
 31
0.0
  0
LINE
  5
208
330
1BD
100
AcDbEntity
  8
Symbol (ANSI)
100
AcDbLine
 10
2.724028949561837
 20
6.39275926424385
 30
0.0
 11
2.724028949561837
 21
6.050994672883088
 31
0.0
  0
LINE
  5
209
330
1BD
100
AcDbEntity
  8
Symbol (ANSI)
100
AcDbLine
 10
6.138691071639831
 20
6.39275926424385
 30
0.0
 11
6.138691071639831
 21
6.050994672883088
 31
0.0
  0
LINE
  5
20A
330
1BD
100
AcDbEntity
  8
Symbol (ANSI)
100
AcDbLine
 10
0.6726520870090546
 20
6.050994672883088
 30
0.0
 11
1.283948695029272
 21
6.050994672883088
 31
0.0
  0
LINE
  5
20B
330
1BD
100
AcDbEntity
  8
Symbol (ANSI)
100
AcDbLine
 10
1.283948695029272
 20
6.050994672883088
 30
0.0
 11
1.283948695029272
 21
5.6345855321189
 31
0.0
  0
LINE
  5
20C
330
1BD
100
AcDbEntity
  8
Symbol (ANSI)
100
AcDbLine
 10
0.6726520870090546
 20
5.6345855321189
 30
0.0
 11
1.283948695029272
 21
5.6345855321189
 31
0.0
  0
MTEXT
  5
20D
330
1BD
100
AcDbEntity
  8
Symbol (ANSI)
100
AcDbMText
 10
0.9396198922595861
 20
5.782790102962567
 30
0.0
 40
0.1200000014830762
 41
0.0
 71
     7
 72
     1
  1
4
  7
Text Style29
 73
     1
 44
1.0
1001
ACAD
1000
MTEXTBEGIN
1070
    73
1070
     1
1070
    44
1040
1.0
1070
    74
1070
     0
1000
MTEXTEND
  0
LINE
  5
20E
330
1BD
100
AcDbEntity
  8
Symbol (ANSI)
100
AcDbLine
 10
1.283948695029272
 20
6.050994672883088
 30
0.0
 11
1.978091033062771
 21
6.050994672883088
 31
0.0
  0
LINE
  5
20F
330
1BD
100
AcDbEntity
  8
Symbol (ANSI)
100
AcDbLine
 10
1.283948695029272
 20
6.050994672883088
 30
0.0
 11
1.283948695029272
 21
5.6345855321189
 31
0.0
  0
LINE
  5
210
330
1BD
100
AcDbEntity
  8
Symbol (ANSI)
100
AcDbLine
 10
1.978091033062771
 20
6.050994672883088
 30
0.0
 11
1.978091033062771
 21
5.6345855321189
 31
0.0
  0
LINE
  5
211
330
1BD
100
AcDbEntity
  8
Symbol (ANSI)
100
AcDbLine
 10
1.283948695029272
 20
5.6345855321189
 30
0.0
 11
1.978091033062771
 21
5.6345855321189
 31
0.0
  0
MTEXT
  5
212
330
1BD
100
AcDbEntity
  8
Symbol (ANSI)
100
AcDbMText
 10
1.365372780290468
 20
5.780261739935015
 30
0.0
 40
0.1200000014830762
 41
0.0
 71
     7
 72
     1
  1
-0.1931
  7
Text Style29
 73
     1
 44
1.875
1001
ACAD
1000
MTEXTBEGIN
1070
    73
1070
     1
1070
    44
1040
1.875
1070
    74
1070
     0
1000
MTEXTEND
  0
LINE
  5
213
330
1BD
100
AcDbEntity
  8
Symbol (ANSI)
100
AcDbLine
 10
1.978091033062771
 20
6.050994672883088
 30
0.0
 11
2.724028949561837
 21
6.050994672883088
 31
0.0
  0
LINE
  5
214
330
1BD
100
AcDbEntity
  8
Symbol (ANSI)
100
AcDbLine
 10
1.978091033062771
 20
6.050994672883088
 30
0.0
 11
1.978091033062771
 21
5.6345855321189
 31
0.0
  0
LINE
  5
215
330
1BD
100
AcDbEntity
  8
Symbol (ANSI)
100
AcDbLine
 10
2.724028949561837
 20
6.050994672883088
 30
0.0
 11
2.724028949561837
 21
5.6345855321189
 31
0.0
  0
LINE
  5
216
330
1BD
100
AcDbEntity
  8
Symbol (ANSI)
100
AcDbLine
 10
1.978091033062771
 20
5.6345855321189
 30
0.0
 11
2.724028949561837
 21
5.6345855321189
 31
0.0
  0
MTEXT
  5
217
330
1BD
100
AcDbEntity
  8
Symbol (ANSI)
100
AcDbMText
 10
2.114210868213585
 20
5.780067250471358
 30
0.0
 40
0.1200000014830762
 41
0.0
 71
     7
 72
     1
  1
0.3680
  7
Text Style29
 73
     1
 44
1.0
1001
ACAD
1000
MTEXTBEGIN
1070
    73
1070
     1
1070
    44
1040
1.0
1070
    74
1070
     0
1000
MTEXTEND
  0
MTEXT
  5
218
330
1BD
100
AcDbEntity
  8
Symbol (ANSI)
100
AcDbMText
 10
3.530068872526305
 20
5.785048789112219
 30
0.0
 40
0.1200000014830762
 41
0.0
 71
     7
 72
     1
  1
REAM 
  7
Text Style29
 73
     1
 44
1.0
1001
ACAD
1000
MTEXTBEGIN
1070
    73
1070
     1
1070
    44
1040
1.0
1070
    74
1070
     0
1000
MTEXTEND
  0
MTEXT
  5
219
330
1BD
100
AcDbEntity
  8
Symbol (ANSI)
100
AcDbMText
 10
3.992586976944361
 20
5.754932958658696
 30
0.0
 40
0.1200000014830762
 41
0.0
 71
     7
 72
     1
  1
n
  7
Text Style6
 73
     1
 44
1.0
1001
ACAD
1000
MTEXTBEGIN
1070
    73
1070
     1
1070
    44
1040
1.0
1070
    74
1070
     0
1000
MTEXTEND
  0
MTEXT
  5
21A
330
1BD
100
AcDbEntity
  8
Symbol (ANSI)
100
AcDbMText
 10
4.126489034363034
 20
5.782520426084668
 30
0.0
 40
0.1200000014830762
 41
0.0
 71
     7
 72
     1
  1
0.0945 
  7
Text Style29
 73
     1
 44
1.0
1001
ACAD
1000
MTEXTBEGIN
1070
    73
1070
     1
1070
    44
1040
1.0
1070
    74
1070
     0
1000
MTEXTEND
  0
MTEXT
  5
21B
330
1BD
100
AcDbEntity
  8
Symbol (ANSI)
100
AcDbMText
 10
4.685368419207356
 20
5.776940680913194
 30
0.0
 40
0.1200000014830762
 41
0.0
 71
     7
 72
     1
  1
x
  7
Text Style6
 73
     1
 44
1.0
1001
ACAD
1000
MTEXTBEGIN
1070
    73
1070
     1
1070
    44
1040
1.0
1070
    74
1070
     0
1000
MTEXTEND
  0
MTEXT
  5
21C
330
1BD
100
AcDbEntity
  8
Symbol (ANSI)
100
AcDbMText
 10
4.804914111271987
 20
5.782520426084668
 30
0.0
 40
0.1200000014830762
 41
0.0
 71
     7
 72
     1
  1
 0.19**
  7
Text Style29
 73
     1
 44
1.0
1001
ACAD
1000
MTEXTBEGIN
1070
    73
1070
     1
1070
    44
1040
1.0
1070
    74
1070
     0
1000
MTEXTEND
  0
LINE
  5
21D
330
1BD
100
AcDbEntity
  8
Symbol (ANSI)
100
AcDbLine
 10
2.724028949561837
 20
6.050994672883088
 30
0.0
 11
6.138691071639831
 21
6.050994672883088
 31
0.0
  0
LINE
  5
21E
330
1BD
100
AcDbEntity
  8
Symbol (ANSI)
100
AcDbLine
 10
2.724028949561837
 20
6.050994672883088
 30
0.0
 11
2.724028949561837
 21
5.6345855321189
 31
0.0
  0
LINE
  5
21F
330
1BD
100
AcDbEntity
  8
Symbol (ANSI)
100
AcDbLine
 10
6.138691071639831
 20
6.050994672883088
 30
0.0
 11
6.138691071639831
 21
5.6345855321189
 31
0.0
  0
LINE
  5
220
330
1BD
100
AcDbEntity
  8
Symbol (ANSI)
100
AcDbLine
 10
0.6726520870090546
 20
5.6345855321189
 30
0.0
 11
1.283948695029272
 21
5.6345855321189
 31
0.0
  0
LINE
  5
221
330
1BD
100
AcDbEntity
  8
Symbol (ANSI)
100
AcDbLine
 10
1.283948695029272
 20
5.6345855321189
 30
0.0
 11
1.283948695029272
 21
5.062138516015116
 31
0.0
  0
LINE
  5
222
330
1BD
100
AcDbEntity
  8
Symbol (ANSI)
100
AcDbLine
 10
0.6726520870090546
 20
5.062138516015116
 30
0.0
 11
1.283948695029272
 21
5.062138516015116
 31
0.0
  0
MTEXT
  5
223
330
1BD
100
AcDbEntity
  8
Symbol (ANSI)
100
AcDbMText
 10
0.9530764621414759
 20
5.287097843014805
 30
0.0
 40
0.1200000014830762
 41
0.0
 71
     7
 72
     1
  1
5
  7
Text Style29
 73
     1
 44
1.0
1001
ACAD
1000
MTEXTBEGIN
1070
    73
1070
     1
1070
    44
1040
1.0
1070
    74
1070
     0
1000
MTEXTEND
  0
LINE
  5
224
330
1BD
100
AcDbEntity
  8
Symbol (ANSI)
100
AcDbLine
 10
1.283948695029272
 20
5.6345855321189
 30
0.0
 11
1.978091033062771
 21
5.6345855321189
 31
0.0
  0
LINE
  5
225
330
1BD
100
AcDbEntity
  8
Symbol (ANSI)
100
AcDbLine
 10
1.283948695029272
 20
5.6345855321189
 30
0.0
 11
1.283948695029272
 21
5.062138516015116
 31
0.0
  0
LINE
  5
226
330
1BD
100
AcDbEntity
  8
Symbol (ANSI)
100
AcDbLine
 10
1.978091033062771
 20
5.6345855321189
 30
0.0
 11
1.978091033062771
 21
5.062138516015116
 31
0.0
  0
LINE
  5
227
330
1BD
100
AcDbEntity
  8
Symbol (ANSI)
100
AcDbLine
 10
1.283948695029272
 20
5.062138516015116
 30
0.0
 11
1.978091033062771
 21
5.062138516015116
 31
0.0
  0
MTEXT
  5
228
330
1BD
100
AcDbEntity
  8
Symbol (ANSI)
100
AcDbMText
 10
1.410397096432393
 20
5.285882283866945
 30
0.0
 40
0.1200000014830762
 41
0.0
 71
     7
 72
     1
  1
-0.715
  7
Text Style29
 73
     1
 44
1.0
1001
ACAD
1000
MTEXTBEGIN
1070
    73
1070
     1
1070
    44
1040
1.0
1070
    74
1070
     0
1000
MTEXTEND
  0
LINE
  5
229
330
1BD
100
AcDbEntity
  8
Symbol (ANSI)
100
AcDbLine
 10
1.978091033062771
 20
5.6345855321189
 30
0.0
 11
2.724028949561837
 21
5.6345855321189
 31
0.0
  0
LINE
  5
22A
330
1BD
100
AcDbEntity
  8
Symbol (ANSI)
100
AcDbLine
 10
1.978091033062771
 20
5.6345855321189
 30
0.0
 11
1.978091033062771
 21
5.062138516015116
 31
0.0
  0
LINE
  5
22B
330
1BD
100
AcDbEntity
  8
Symbol (ANSI)
100
AcDbLine
 10
2.724028949561837
 20
5.6345855321189
 30
0.0
 11
2.724028949561837
 21
5.062138516015116
 31
0.0
  0
LINE
  5
22C
330
1BD
100
AcDbEntity
  8
Symbol (ANSI)
100
AcDbLine
 10
1.978091033062771
 20
5.062138516015116
 30
0.0
 11
2.724028949561837
 21
5.062138516015116
 31
0.0
  0
MTEXT
  5
22D
330
1BD
100
AcDbEntity
  8
Symbol (ANSI)
100
AcDbMText
 10
2.15923518435551
 20
5.285882283866945
 30
0.0
 40
0.1200000014830762
 41
0.0
 71
     7
 72
     1
  1
0.099
  7
Text Style29
 73
     1
 44
1.0
1001
ACAD
1000
MTEXTBEGIN
1070
    73
1070
     1
1070
    44
1040
1.0
1070
    74
1070
     0
1000
MTEXTEND
  0
MTEXT
  5
22E
330
1BD
100
AcDbEntity
  8
Symbol (ANSI)
100
AcDbMText
 10
3.586659112124361
 20
5.453947704809087
 30
0.0
 40
0.1200000014830762
 41
0.0
 71
     7
 72
     1
  1
DRILL 
  7
Text Style29
 73
     1
 44
1.0
1001
ACAD
1000
MTEXTBEGIN
1070
    73
1070
     1
1070
    44
1040
1.0
1070
    74
1070
     0
1000
MTEXTEND
  0
MTEXT
  5
22F
330
1BD
100
AcDbEntity
  8
Symbol (ANSI)
100
AcDbMText
 10
4.068042696740113
 20
5.423831874355564
 30
0.0
 40
0.1200000014830762
 41
0.0
 71
     7
 72
     1
  1
n
  7
Text Style6
 73
     1
 44
1.0
1001
ACAD
1000
MTEXTBEGIN
1070
    73
1070
     1
1070
    44
1040
1.0
1070
    74
1070
     0
1000
MTEXTEND
  0
MTEXT
  5
230
330
1BD
100
AcDbEntity
  8
Symbol (ANSI)
100
AcDbMText
 10
4.201944754158787
 20
5.424093572137617
 30
0.0
 40
0.1200000014830762
 41
0.0
 71
     7
 72
     1
  1
0.089 in THRU,
  7
Text Style29
 73
     1
 44
1.0
1001
ACAD
1000
MTEXTBEGIN
1070
    73
1070
     1
1070
    44
1040
1.0
1070
    74
1070
     0
1000
MTEXTEND
  0
MTEXT
  5
231
330
1BD
100
AcDbEntity
  8
Symbol (ANSI)
100
AcDbMText
 10
2.980140078417328
 20
5.126019585258961
 30
0.0
 40
0.1200000014830762
 41
0.0
 71
     7
 72
     1
  1
v
  7
Text Style6
 73
     1
 44
1.0
1001
ACAD
1000
MTEXTBEGIN
1070
    73
1070
     1
1070
    44
1040
1.0
1070
    74
1070
     0
1000
MTEXTEND
  0
MTEXT
  5
232
330
1BD
100
AcDbEntity
  8
Symbol (ANSI)
100
AcDbMText
 10
3.222842846960902
 20
5.127293716547379
 30
0.0
 40
0.1200000014830762
 41
0.0
 71
     7
 72
     1
  1
 
  7
Text Style29
 73
     1
 44
1.0
1001
ACAD
1000
MTEXTBEGIN
1070
    73
1070
     1
1070
    44
1040
1.0
1070
    74
1070
     0
1000
MTEXTEND
  0
MTEXT
  5
233
330
1BD
100
AcDbEntity
  8
Symbol (ANSI)
100
AcDbMText
 10
3.28822359834355
 20
5.097177886093856
 30
0.0
 40
0.1200000014830762
 41
0.0
 71
     7
 72
     1
  1
n
  7
Text Style6
 73
     1
 44
1.0
1001
ACAD
1000
MTEXTBEGIN
1070
    73
1070
     1
1070
    44
1040
1.0
1070
    74
1070
     0
1000
MTEXTEND
  0
MTEXT
  5
234
330
1BD
100
AcDbEntity
  8
Symbol (ANSI)
100
AcDbMText
 10
3.422125655762223
 20
5.124765353519828
 30
0.0
 40
0.1200000014830762
 41
0.0
 71
     7
 72
     1
  1
0.156 in 
  7
Text Style29
 73
     1
 44
1.0
1001
ACAD
1000
MTEXTBEGIN
1070
    73
1070
     1
1070
    44
1040
1.0
1070
    74
1070
     0
1000
MTEXTEND
  0
MTEXT
  5
235
330
1BD
100
AcDbEntity
  8
Symbol (ANSI)
100
AcDbMText
 10
4.072220562877047
 20
5.119185608348354
 30
0.0
 40
0.1200000014830762
 41
0.0
 71
     7
 72
     1
  1
x
  7
Text Style6
 73
     1
 44
1.0
1001
ACAD
1000
MTEXTBEGIN
1070
    73
1070
     1
1070
    44
1040
1.0
1070
    74
1070
     0
1000
MTEXTEND
  0
MTEXT
  5
236
330
1BD
100
AcDbEntity
  8
Symbol (ANSI)
100
AcDbMText
 10
4.191766254941678
 20
5.12457086405617
 30
0.0
 40
0.1200000014830762
 41
0.0
 71
     7
 72
     1
  1
 0.28 FROM BACK SIDE
  7
Text Style29
 73
     1
 44
1.0
1001
ACAD
1000
MTEXTBEGIN
1070
    73
1070
     1
1070
    44
1040
1.0
1070
    74
1070
     0
1000
MTEXTEND
  0
LINE
  5
237
330
1BD
100
AcDbEntity
  8
Symbol (ANSI)
100
AcDbLine
 10
2.724028949561837
 20
5.6345855321189
 30
0.0
 11
6.138691071639831
 21
5.6345855321189
 31
0.0
  0
LINE
  5
238
330
1BD
100
AcDbEntity
  8
Symbol (ANSI)
100
AcDbLine
 10
2.724028949561837
 20
5.6345855321189
 30
0.0
 11
2.724028949561837
 21
5.062138516015116
 31
0.0
  0
LINE
  5
239
330
1BD
100
AcDbEntity
  8
Symbol (ANSI)
100
AcDbLine
 10
6.138691071639831
 20
5.6345855321189
 30
0.0
 11
6.138691071639831
 21
5.062138516015116
 31
0.0
  0
LINE
  5
23A
330
1BD
100
AcDbEntity
  8
Symbol (ANSI)
100
AcDbLine
 10
0.6726520870090546
 20
5.062138516015116
 30
0.0
 11
1.283948695029272
 21
5.062138516015116
 31
0.0
  0
LINE
  5
23B
330
1BD
100
AcDbEntity
  8
Symbol (ANSI)
100
AcDbLine
 10
1.283948695029272
 20
5.062138516015116
 30
0.0
 11
1.283948695029272
 21
4.489691499911333
 31
0.0
  0
MTEXT
  5
23C
330
1BD
100
AcDbEntity
  8
Symbol (ANSI)
100
AcDbMText
 10
0.9467326506257279
 20
4.71353251249499
 30
0.0
 40
0.1200000014830762
 41
0.0
 71
     7
 72
     1
  1
6
  7
Text Style29
 73
     1
 44
1.0
1001
ACAD
1000
MTEXTBEGIN
1070
    73
1070
     1
1070
    44
1040
1.0
1070
    74
1070
     0
1000
MTEXTEND
  0
LINE
  5
23D
330
1BD
100
AcDbEntity
  8
Symbol (ANSI)
100
AcDbLine
 10
1.283948695029272
 20
5.062138516015116
 30
0.0
 11
1.978091033062771
 21
5.062138516015116
 31
0.0
  0
LINE
  5
23E
330
1BD
100
AcDbEntity
  8
Symbol (ANSI)
100
AcDbLine
 10
1.283948695029272
 20
5.062138516015116
 30
0.0
 11
1.283948695029272
 21
4.489691499911333
 31
0.0
  0
LINE
  5
23F
330
1BD
100
AcDbEntity
  8
Symbol (ANSI)
100
AcDbLine
 10
1.978091033062771
 20
5.062138516015116
 30
0.0
 11
1.978091033062771
 21
4.489691499911333
 31
0.0
  0
MTEXT
  5
240
330
1BD
100
AcDbEntity
  8
Symbol (ANSI)
100
AcDbMText
 10
1.410397096432393
 20
4.713386645397246
 30
0.0
 40
0.1200000014830762
 41
0.0
 71
     7
 72
     1
  1
-0.269
  7
Text Style29
 73
     1
 44
1.0
1001
ACAD
1000
MTEXTBEGIN
1070
    73
1070
     1
1070
    44
1040
1.0
1070
    74
1070
     0
1000
MTEXTEND
  0
LINE
  5
241
330
1BD
100
AcDbEntity
  8
Symbol (ANSI)
100
AcDbLine
 10
1.978091033062771
 20
5.062138516015116
 30
0.0
 11
2.724028949561837
 21
5.062138516015116
 31
0.0
  0
LINE
  5
242
330
1BD
100
AcDbEntity
  8
Symbol (ANSI)
100
AcDbLine
 10
1.978091033062771
 20
5.062138516015116
 30
0.0
 11
1.978091033062771
 21
4.489691499911333
 31
0.0
  0
LINE
  5
243
330
1BD
100
AcDbEntity
  8
Symbol (ANSI)
100
AcDbLine
 10
2.724028949561837
 20
5.062138516015116
 30
0.0
 11
2.724028949561837
 21
4.489691499911333
 31
0.0
  0
MTEXT
  5
244
330
1BD
100
AcDbEntity
  8
Symbol (ANSI)
100
AcDbMText
 10
2.15923518435551
 20
4.713386645397246
 30
0.0
 40
0.1200000014830762
 41
0.0
 71
     7
 72
     1
  1
0.290
  7
Text Style29
 73
     1
 44
1.0
1001
ACAD
1000
MTEXTBEGIN
1070
    73
1070
     1
1070
    44
1040
1.0
1070
    74
1070
     0
1000
MTEXTEND
  0
LINE
  5
245
330
1BD
100
AcDbEntity
  8
Symbol (ANSI)
100
AcDbLine
 10
2.724028949561837
 20
5.062138516015116
 30
0.0
 11
6.138691071639831
 21
5.062138516015116
 31
0.0
  0
LINE
  5
246
330
1BD
100
AcDbEntity
  8
Symbol (ANSI)
100
AcDbLine
 10
2.724028949561837
 20
5.062138516015116
 30
0.0
 11
2.724028949561837
 21
4.489691499911333
 31
0.0
  0
MTEXT
  5
247
330
1BD
100
AcDbEntity
  8
Symbol (ANSI)
100
AcDbMText
 10
3.586659112124361
 20
4.881500688705304
 30
0.0
 40
0.1200000014830762
 41
0.0
 71
     7
 72
     1
  1
DRILL 
  7
Text Style29
 73
     1
 44
1.0
1001
ACAD
1000
MTEXTBEGIN
1070
    73
1070
     1
1070
    44
1040
1.0
1070
    74
1070
     0
1000
MTEXTEND
  0
MTEXT
  5
248
330
1BD
100
AcDbEntity
  8
Symbol (ANSI)
100
AcDbMText
 10
4.068042696740113
 20
4.85138485825178
 30
0.0
 40
0.1200000014830762
 41
0.0
 71
     7
 72
     1
  1
n
  7
Text Style6
 73
     1
 44
1.0
1001
ACAD
1000
MTEXTBEGIN
1070
    73
1070
     1
1070
    44
1040
1.0
1070
    74
1070
     0
1000
MTEXTEND
  0
MTEXT
  5
249
330
1BD
100
AcDbEntity
  8
Symbol (ANSI)
100
AcDbMText
 10
4.201944754158787
 20
4.851646556033833
 30
0.0
 40
0.1200000014830762
 41
0.0
 71
     7
 72
     1
  1
0.089 in THRU,
  7
Text Style29
 73
     1
 44
1.0
1001
ACAD
1000
MTEXTBEGIN
1070
    73
1070
     1
1070
    44
1040
1.0
1070
    74
1070
     0
1000
MTEXTEND
  0
MTEXT
  5
24A
330
1BD
100
AcDbEntity
  8
Symbol (ANSI)
100
AcDbMText
 10
2.980140078417328
 20
4.553572569155178
 30
0.0
 40
0.1200000014830762
 41
0.0
 71
     7
 72
     1
  1
v
  7
Text Style6
 73
     1
 44
1.0
1001
ACAD
1000
MTEXTBEGIN
1070
    73
1070
     1
1070
    44
1040
1.0
1070
    74
1070
     0
1000
MTEXTEND
  0
MTEXT
  5
24B
330
1BD
100
AcDbEntity
  8
Symbol (ANSI)
100
AcDbMText
 10
3.222842846960902
 20
4.554846700443595
 30
0.0
 40
0.1200000014830762
 41
0.0
 71
     7
 72
     1
  1
 
  7
Text Style29
 73
     1
 44
1.0
1001
ACAD
1000
MTEXTBEGIN
1070
    73
1070
     1
1070
    44
1040
1.0
1070
    74
1070
     0
1000
MTEXTEND
  0
MTEXT
  5
24C
330
1BD
100
AcDbEntity
  8
Symbol (ANSI)
100
AcDbMText
 10
3.28822359834355
 20
4.524730869990072
 30
0.0
 40
0.1200000014830762
 41
0.0
 71
     7
 72
     1
  1
n
  7
Text Style6
 73
     1
 44
1.0
1001
ACAD
1000
MTEXTBEGIN
1070
    73
1070
     1
1070
    44
1040
1.0
1070
    74
1070
     0
1000
MTEXTEND
  0
MTEXT
  5
24D
330
1BD
100
AcDbEntity
  8
Symbol (ANSI)
100
AcDbMText
 10
3.422125655762223
 20
4.552318337416044
 30
0.0
 40
0.1200000014830762
 41
0.0
 71
     7
 72
     1
  1
0.156 in 
  7
Text Style29
 73
     1
 44
1.0
1001
ACAD
1000
MTEXTBEGIN
1070
    73
1070
     1
1070
    44
1040
1.0
1070
    74
1070
     0
1000
MTEXTEND
  0
MTEXT
  5
24E
330
1BD
100
AcDbEntity
  8
Symbol (ANSI)
100
AcDbMText
 10
4.072220562877047
 20
4.546738592244571
 30
0.0
 40
0.1200000014830762
 41
0.0
 71
     7
 72
     1
  1
x
  7
Text Style6
 73
     1
 44
1.0
1001
ACAD
1000
MTEXTBEGIN
1070
    73
1070
     1
1070
    44
1040
1.0
1070
    74
1070
     0
1000
MTEXTEND
  0
MTEXT
  5
24F
330
1BD
100
AcDbEntity
  8
Symbol (ANSI)
100
AcDbMText
 10
4.191766254941678
 20
4.552318337416044
 30
0.0
 40
0.1200000014830762
 41
0.0
 71
     7
 72
     1
  1
 0.24 FROM BACK SIDE
  7
Text Style29
 73
     1
 44
1.0
1001
ACAD
1000
MTEXTBEGIN
1070
    73
1070
     1
1070
    44
1040
1.0
1070
    74
1070
     0
1000
MTEXTEND
  0
LINE
  5
250
330
1BD
100
AcDbEntity
  8
Symbol (ANSI)
100
AcDbLine
 10
2.724028949561837
 20
5.062138516015116
 30
0.0
 11
6.138691071639831
 21
5.062138516015116
 31
0.0
  0
LINE
  5
251
330
1BD
100
AcDbEntity
  8
Symbol (ANSI)
100
AcDbLine
 10
2.724028949561837
 20
5.062138516015116
 30
0.0
 11
2.724028949561837
 21
4.489691499911333
 31
0.0
  0
LINE
  5
252
330
1BD
100
AcDbEntity
  8
Symbol (ANSI)
100
AcDbLine
 10
6.138691071639831
 20
5.062138516015116
 30
0.0
 11
6.138691071639831
 21
4.489691499911333
 31
0.0
  0
LINE
  5
253
330
1BD
100
AcDbEntity
  8
Symbol (ANSI)
100
AcDbLine
 10
0.6726520870090546
 20
4.489691499911334
 30
0.0
 11
0.6726520870090546
 21
7.720303914347266
 31
0.0
  0
LINE
  5
254
330
1BD
100
AcDbEntity
  8
Symbol (ANSI)
100
AcDbLine
 10
0.6726520870090546
 20
7.720303914347266
 30
0.0
 11
6.138691071639831
 21
7.720303914347266
 31
0.0
  0
LINE
  5
255
330
1BD
100
AcDbEntity
  8
Symbol (ANSI)
100
AcDbLine
 10
6.138691071639831
 20
7.720303914347266
 30
0.0
 11
6.138691071639831
 21
4.489691499911334
 31
0.0
  0
LINE
  5
256
330
1BD
100
AcDbEntity
  8
Symbol (ANSI)
100
AcDbLine
 10
6.138691071639831
 20
4.489691499911334
 30
0.0
 11
0.6726520870090546
 21
4.489691499911334
 31
0.0
  0
ENDBLK
  5
1BF
330
1BD
100
AcDbEntity
  8
0
100
AcDbBlockEnd
  0
BLOCK
  5
259
330
258
100
AcDbEntity
  8
0
100
AcDbBlockBegin
  2
Leader Text1
 70
     0
 10
0.0
 20
0.0
 30
0.0
  3
Leader Text1
  1

  0
LINE
  5
25B
330
258
100
AcDbEntity
  8
Symbol (ANSI)
100
AcDbLine
 10
8.616810184256339
 20
5.442716676636544
 30
0.0
 11
8.616993611589011
 21
5.541141702567212
 31
0.0
  0
POLYLINE
  5
25C
330
258
100
AcDbEntity
  8
Symbol (ANSI)
100
AcDb2dPolyline
 66
     1
 10
0.0
 20
0.0
 30
0.0
 70
   128
  0
VERTEX
  5
25D
330
25C
100
AcDbEntity
  8
Symbol (ANSI)
100
AcDbVertex
100
AcDb2dVertex
 10
8.63649488434078
 20
5.442680148627814
 30
0.0
  0
VERTEX
  5
25E
330
25C
100
AcDbEntity
  8
Symbol (ANSI)
100
AcDbVertex
100
AcDb2dVertex
 10
8.61699337095726
 20
5.541141765324149
 30
0.0
  0
VERTEX
  5
260
330
25C
100
AcDbEntity
  8
Symbol (ANSI)
100
AcDbVertex
100
AcDb2dVertex
 10
8.597125406340349
 20
5.442753363782026
 30
0.0
  0
VERTEX
  5
261
330
25C
100
AcDbEntity
  8
Symbol (ANSI)
100
AcDbVertex
100
AcDb2dVertex
 10
8.63649488434078
 20
5.442680148627814
 30
0.0
  0
SEQEND
  5
25F
330
25C
100
AcDbEntity
  8
Symbol (ANSI)
  0
SOLID
  5
262
330
258
100
AcDbEntity
  8
Symbol (ANSI)
100
AcDbTrace
 10
8.63649488434078
 20
5.442680148627814
 30
0.0
 11
8.61699337095726
 21
5.541141765324149
 31
0.0
 12
8.597125406340349
 22
5.442753363782026
 32
0.0
 13
8.63649488434078
 23
5.442680148627814
 33
0.0
  0
LINE
  5
263
330
258
100
AcDbEntity
  8
Symbol (ANSI)
100
AcDbLine
 10
8.636495189442474
 20
5.442679991170011
 30
0.0
 11
8.616993611589011
 21
5.541141702567212
 31
0.0
  0
LINE
  5
264
330
258
100
AcDbEntity
  8
Symbol (ANSI)
100
AcDbLine
 10
8.616993611589011
 20
5.541141702567212
 30
0.0
 11
8.597125179070205
 21
5.442753362103079
 31
0.0
  0
LINE
  5
265
330
258
100
AcDbEntity
  8
Symbol (ANSI)
100
AcDbLine
 10
8.597125179070205
 20
5.442753362103079
 30
0.0
 11
8.636495189442474
 21
5.442679991170011
 31
0.0
  0
LINE
  5
266
330
258
100
AcDbEntity
  8
Symbol (ANSI)
100
AcDbLine
 10
8.616810184256339
 20
5.442716676636544
 30
0.0
 11
8.616196041411281
 21
5.113174592751732
 31
0.0
  0
LINE
  5
267
330
258
100
AcDbEntity
  8
Symbol (ANSI)
100
AcDbLine
 10
8.616196041411281
 20
5.113174592751732
 30
0.0
 11
8.481129697490665
 21
5.113174592751732
 31
0.0
  0
MTEXT
  5
268
330
258
100
AcDbEntity
  8
Symbol (ANSI)
100
AcDbMText
 10
8.408382381073872
 20
5.05191041169953
 30
0.0
 40
0.1200000014830762
 41
0.0
 71
     7
 72
     1
  1
2
  7
Text Style29
 73
     1
 44
1.0
1001
ACAD
1000
MTEXTBEGIN
1070
    73
1070
     1
1070
    44
1040
1.0
1070
    74
1070
     0
1000
MTEXTEND
  0
ENDBLK
  5
25A
330
258
100
AcDbEntity
  8
0
100
AcDbBlockEnd
  0
BLOCK
  5
26B
330
26A
100
AcDbEntity
  8
0
100
AcDbBlockBegin
  2
Leader Text2
 70
     0
 10
0.0
 20
0.0
 30
0.0
  3
Leader Text2
  1

  0
LINE
  5
26D
330
26A
100
AcDbEntity
  8
Symbol (ANSI)
100
AcDbLine
 10
7.753821944562127
 20
5.452135074419379
 30
0.0
 11
7.779296150569829
 21
5.547206543343111
 31
0.0
  0
POLYLINE
  5
26E
330
26A
100
AcDbEntity
  8
Symbol (ANSI)
100
AcDb2dPolyline
 66
     1
 10
0.0
 20
0.0
 30
0.0
 70
   128
  0
VERTEX
  5
26F
330
26E
100
AcDbEntity
  8
Symbol (ANSI)
100
AcDbVertex
100
AcDb2dVertex
 10
7.772836159533402
 20
5.447040392657902
 30
0.0
  0
VERTEX
  5
270
330
26E
100
AcDbEntity
  8
Symbol (ANSI)
100
AcDbVertex
100
AcDb2dVertex
 10
7.779296364371231
 20
5.547206608329231
 30
0.0
  0
VERTEX
  5
272
330
26E
100
AcDbEntity
  8
Symbol (ANSI)
100
AcDbVertex
100
AcDb2dVertex
 10
7.734807832973209
 20
5.457230064812606
 30
0.0
  0
VERTEX
  5
273
330
26E
100
AcDbEntity
  8
Symbol (ANSI)
100
AcDbVertex
100
AcDb2dVertex
 10
7.772836159533402
 20
5.447040392657902
 30
0.0
  0
SEQEND
  5
271
330
26E
100
AcDbEntity
  8
Symbol (ANSI)
  0
SOLID
  5
274
330
26A
100
AcDbEntity
  8
Symbol (ANSI)
100
AcDbTrace
 10
7.772836159533402
 20
5.447040392657902
 30
0.0
 11
7.779296364371231
 21
5.547206608329231
 31
0.0
 12
7.734807832973209
 22
5.457230064812606
 32
0.0
 13
7.772836159533402
 23
5.447040392657902
 33
0.0
  0
LINE
  5
275
330
26A
100
AcDbEntity
  8
Symbol (ANSI)
100
AcDbLine
 10
7.772836238346873
 20
5.447040233217839
 30
0.0
 11
7.779296150569829
 21
5.547206543343111
 31
0.0
  0
LINE
  5
276
330
26A
100
AcDbEntity
  8
Symbol (ANSI)
100
AcDbLine
 10
7.779296150569829
 20
5.547206543343111
 30
0.0
 11
7.734807650777382
 21
5.457229915620919
 31
0.0
  0
LINE
  5
277
330
26A
100
AcDbEntity
  8
Symbol (ANSI)
100
AcDbLine
 10
7.734807650777382
 20
5.457229915620919
 30
0.0
 11
7.772836238346873
 21
5.447040233217839
 31
0.0
  0
LINE
  5
278
330
26A
100
AcDbEntity
  8
Symbol (ANSI)
100
AcDbLine
 10
7.753821944562127
 20
5.452135074419379
 30
0.0
 11
7.653952184114626
 21
5.079414337846278
 31
0.0
  0
LINE
  5
279
330
26A
100
AcDbEntity
  8
Symbol (ANSI)
100
AcDbLine
 10
7.653952184114626
 20
5.079414337846278
 30
0.0
 11
7.881381375611034
 21
5.079414337846278
 31
0.0
  0
MTEXT
  5
27A
330
26A
100
AcDbEntity
  8
Symbol (ANSI)
100
AcDbMText
 10
7.91732964086694
 20
5.019219848844194
 30
0.0
 40
0.1200000014830762
 41
0.0
 71
     7
 72
     1
  1
1
  7
Text Style29
 73
     1
 44
1.0
1001
ACAD
1000
MTEXTBEGIN
1070
    73
1070
     1
1070
    44
1040
1.0
1070
    74
1070
     0
1000
MTEXTEND
  0
ENDBLK
  5
26C
330
26A
100
AcDbEntity
  8
0
100
AcDbBlockEnd
  0
BLOCK
  5
27D
330
27C
100
AcDbEntity
  8
0
100
AcDbBlockBegin
  2
Hole Table2
 70
     0
 10
0.0
 20
0.0
 30
0.0
  3
Hole Table2
  1

  0
MTEXT
  5
27F
330
27C
100
AcDbEntity
  8
Symbol (ANSI)
100
AcDbMText
 10
2.878056466881251
 20
3.479857975586706
 30
0.0
 40
0.1200000014830762
 41
0.0
 71
     7
 72
     1
  1
Hole Table
  7
Text Style29
 73
     1
 44
1.0
1001
ACAD
1000
MTEXTBEGIN
1070
    73
1070
     1
1070
    44
1040
1.0
1070
    74
1070
     0
1000
MTEXTEND
  0
LINE
  5
280
330
27C
100
AcDbEntity
  8
Symbol (ANSI)
100
AcDbLine
 10
0.6415747399297133
 20
3.365907697802169
 30
0.0
 11
1.426386535809585
 21
3.365907697802169
 31
0.0
  0
LINE
  5
281
330
27C
100
AcDbEntity
  8
Symbol (ANSI)
100
AcDbLine
 10
1.426386535809585
 20
3.365907697802169
 30
0.0
 11
1.426386535809585
 21
3.0101303198781
 31
0.0
  0
LINE
  5
282
330
27C
100
AcDbEntity
  8
Symbol (ANSI)
100
AcDbLine
 10
0.6415747399297133
 20
3.0101303198781
 30
0.0
 11
1.426386535809585
 21
3.0101303198781
 31
0.0
  0
MTEXT
  5
283
330
27C
100
AcDbEntity
  8
Symbol (ANSI)
100
AcDbMText
 10
0.8565677646916327
 20
3.125490646274156
 30
0.0
 40
0.1200000014830762
 41
0.0
 71
     7
 72
     1
  1
HOLE
  7
Text Style29
 73
     1
 44
1.0
1001
ACAD
1000
MTEXTBEGIN
1070
    73
1070
     1
1070
    44
1040
1.0
1070
    74
1070
     0
1000
MTEXTEND
  0
LINE
  5
284
330
27C
100
AcDbEntity
  8
Symbol (ANSI)
100
AcDbLine
 10
1.426386535809585
 20
3.365907697802169
 30
0.0
 11
2.252607598930282
 21
3.365907697802169
 31
0.0
  0
LINE
  5
285
330
27C
100
AcDbEntity
  8
Symbol (ANSI)
100
AcDbLine
 10
1.426386535809585
 20
3.365907697802169
 30
0.0
 11
1.426386535809585
 21
3.0101303198781
 31
0.0
  0
LINE
  5
286
330
27C
100
AcDbEntity
  8
Symbol (ANSI)
100
AcDbLine
 10
2.252607598930282
 20
3.365907697802169
 30
0.0
 11
2.252607598930282
 21
3.0101303198781
 31
0.0
  0
LINE
  5
287
330
27C
100
AcDbEntity
  8
Symbol (ANSI)
100
AcDbLine
 10
1.426386535809585
 20
3.0101303198781
 30
0.0
 11
2.252607598930282
 21
3.0101303198781
 31
0.0
  0
MTEXT
  5
288
330
27C
100
AcDbEntity
  8
Symbol (ANSI)
100
AcDbMText
 10
1.642609338633777
 20
3.128019009301708
 30
0.0
 40
0.1200000014830762
 41
0.0
 71
     7
 72
     1
  1
XDIM
  7
Text Style29
 73
     1
 44
1.0
1001
ACAD
1000
MTEXTBEGIN
1070
    73
1070
     1
1070
    44
1040
1.0
1070
    74
1070
     0
1000
MTEXTEND
  0
LINE
  5
289
330
27C
100
AcDbEntity
  8
Symbol (ANSI)
100
AcDbLine
 10
2.252607598930282
 20
3.365907697802169
 30
0.0
 11
3.099546893437206
 21
3.365907697802169
 31
0.0
  0
LINE
  5
28A
330
27C
100
AcDbEntity
  8
Symbol (ANSI)
100
AcDbLine
 10
2.252607598930282
 20
3.365907697802169
 30
0.0
 11
2.252607598930282
 21
3.0101303198781
 31
0.0
  0
LINE
  5
28B
330
27C
100
AcDbEntity
  8
Symbol (ANSI)
100
AcDbLine
 10
3.099546893437206
 20
3.365907697802169
 30
0.0
 11
3.099546893437206
 21
3.0101303198781
 31
0.0
  0
LINE
  5
28C
330
27C
100
AcDbEntity
  8
Symbol (ANSI)
100
AcDbLine
 10
2.252607598930282
 20
3.0101303198781
 30
0.0
 11
3.099546893437206
 21
3.0101303198781
 31
0.0
  0
MTEXT
  5
28D
330
27C
100
AcDbEntity
  8
Symbol (ANSI)
100
AcDbMText
 10
2.476454086647517
 20
3.128019009301708
 30
0.0
 40
0.1200000014830762
 41
0.0
 71
     7
 72
     1
  1
YDIM
  7
Text Style29
 73
     1
 44
1.0
1001
ACAD
1000
MTEXTBEGIN
1070
    73
1070
     1
1070
    44
1040
1.0
1070
    74
1070
     0
1000
MTEXTEND
  0
LINE
  5
28E
330
27C
100
AcDbEntity
  8
Symbol (ANSI)
100
AcDbLine
 10
3.099546893437206
 20
3.365907697802169
 30
0.0
 11
5.842394728505323
 21
3.365907697802169
 31
0.0
  0
LINE
  5
28F
330
27C
100
AcDbEntity
  8
Symbol (ANSI)
100
AcDbLine
 10
3.099546893437206
 20
3.365907697802169
 30
0.0
 11
3.099546893437206
 21
3.0101303198781
 31
0.0
  0
LINE
  5
290
330
27C
100
AcDbEntity
  8
Symbol (ANSI)
100
AcDbLine
 10
3.099546893437206
 20
3.0101303198781
 30
0.0
 11
5.842394728505323
 21
3.0101303198781
 31
0.0
  0
MTEXT
  5
291
330
27C
100
AcDbEntity
  8
Symbol (ANSI)
100
AcDbMText
 10
3.977318056090014
 20
3.125490646274156
 30
0.0
 40
0.1200000014830762
 41
0.0
 71
     7
 72
     1
  1
DESCRIPTION
  7
Text Style29
 73
     1
 44
1.0
1001
ACAD
1000
MTEXTBEGIN
1070
    73
1070
     1
1070
    44
1040
1.0
1070
    74
1070
     0
1000
MTEXTEND
  0
LINE
  5
292
330
27C
100
AcDbEntity
  8
Symbol (ANSI)
100
AcDbLine
 10
0.6415747399297133
 20
3.0101303198781
 30
0.0
 11
1.426386535809585
 21
3.0101303198781
 31
0.0
  0
LINE
  5
293
330
27C
100
AcDbEntity
  8
Symbol (ANSI)
100
AcDbLine
 10
1.426386535809585
 20
3.0101303198781
 30
0.0
 11
1.426386535809585
 21
2.54679585262918
 31
0.0
  0
LINE
  5
294
330
27C
100
AcDbEntity
  8
Symbol (ANSI)
100
AcDbLine
 10
0.6415747399297133
 20
2.54679585262918
 30
0.0
 11
1.426386535809585
 21
2.54679585262918
 31
0.0
  0
MTEXT
  5
295
330
27C
100
AcDbEntity
  8
Symbol (ANSI)
100
AcDbMText
 10
0.9379208654270042
 20
2.718268597251555
 30
0.0
 40
0.1200000014830762
 41
0.0
 71
     7
 72
     1
  1
A1
  7
Text Style29
 73
     1
 44
1.0
1001
ACAD
1000
MTEXTBEGIN
1070
    73
1070
     1
1070
    44
1040
1.0
1070
    74
1070
     0
1000
MTEXTEND
  0
LINE
  5
296
330
27C
100
AcDbEntity
  8
Symbol (ANSI)
100
AcDbLine
 10
1.426386535809585
 20
3.0101303198781
 30
0.0
 11
2.252607598930282
 21
3.0101303198781
 31
0.0
  0
LINE
  5
297
330
27C
100
AcDbEntity
  8
Symbol (ANSI)
100
AcDbLine
 10
1.426386535809585
 20
3.0101303198781
 30
0.0
 11
1.426386535809585
 21
2.54679585262918
 31
0.0
  0
LINE
  5
298
330
27C
100
AcDbEntity
  8
Symbol (ANSI)
100
AcDbLine
 10
2.252607598930282
 20
3.0101303198781
 30
0.0
 11
2.252607598930282
 21
2.54679585262918
 31
0.0
  0
LINE
  5
299
330
27C
100
AcDbEntity
  8
Symbol (ANSI)
100
AcDbLine
 10
1.426386535809585
 20
2.54679585262918
 30
0.0
 11
2.252607598930282
 21
2.54679585262918
 31
0.0
  0
MTEXT
  5
29A
330
27C
100
AcDbEntity
  8
Symbol (ANSI)
100
AcDbMText
 10
1.618874299756305
 20
2.715983346053576
 30
0.0
 40
0.1200000014830762
 41
0.0
 71
     7
 72
     1
  1
-0.566
  7
Text Style29
 73
     1
 44
1.0
1001
ACAD
1000
MTEXTBEGIN
1070
    73
1070
     1
1070
    44
1040
1.0
1070
    74
1070
     0
1000
MTEXTEND
  0
LINE
  5
29B
330
27C
100
AcDbEntity
  8
Symbol (ANSI)
100
AcDbLine
 10
2.252607598930282
 20
3.0101303198781
 30
0.0
 11
3.099546893437206
 21
3.0101303198781
 31
0.0
  0
LINE
  5
29C
330
27C
100
AcDbEntity
  8
Symbol (ANSI)
100
AcDbLine
 10
2.252607598930282
 20
3.0101303198781
 30
0.0
 11
2.252607598930282
 21
2.54679585262918
 31
0.0
  0
LINE
  5
29D
330
27C
100
AcDbEntity
  8
Symbol (ANSI)
100
AcDbLine
 10
3.099546893437206
 20
3.0101303198781
 30
0.0
 11
3.099546893437206
 21
2.54679585262918
 31
0.0
  0
LINE
  5
29E
330
27C
100
AcDbEntity
  8
Symbol (ANSI)
100
AcDbLine
 10
2.252607598930282
 20
2.54679585262918
 30
0.0
 11
3.099546893437206
 21
2.54679585262918
 31
0.0
  0
MTEXT
  5
29F
330
27C
100
AcDbEntity
  8
Symbol (ANSI)
100
AcDbMText
 10
2.455454478570116
 20
2.715983346053576
 30
0.0
 40
0.1200000014830762
 41
0.0
 71
     7
 72
     1
  1
-0.099
  7
Text Style29
 73
     1
 44
1.0
1001
ACAD
1000
MTEXTBEGIN
1070
    73
1070
     1
1070
    44
1040
1.0
1070
    74
1070
     0
1000
MTEXTEND
  0
MTEXT
  5
2A0
330
27C
100
AcDbEntity
  8
Symbol (ANSI)
100
AcDbMText
 10
3.651261811519574
 20
2.720721772864866
 30
0.0
 40
0.1200000014830762
 41
0.0
 71
     7
 72
     1
  1
DRILL 
  7
Text Style29
 73
     1
 44
1.0
1001
ACAD
1000
MTEXTBEGIN
1070
    73
1070
     1
1070
    44
1040
1.0
1070
    74
1070
     0
1000
MTEXTEND
  0
MTEXT
  5
2A1
330
27C
100
AcDbEntity
  8
Symbol (ANSI)
100
AcDbMText
 10
4.132645396135327
 20
2.690605942411342
 30
0.0
 40
0.1200000014830762
 41
0.0
 71
     7
 72
     1
  1
n
  7
Text Style6
 73
     1
 44
2.444422960281372
1001
ACAD
1000
MTEXTBEGIN
1070
    73
1070
     1
1070
    44
1040
2.444422960281372
1070
    74
1070
     0
1000
MTEXTEND
  0
MTEXT
  5
2A2
330
27C
100
AcDbEntity
  8
Symbol (ANSI)
100
AcDbMText
 10
4.266547453554
 20
2.717998920373657
 30
0.0
 40
0.1200000014830762
 41
0.0
 71
     7
 72
     1
  1
0.089 in THRU
  7
Text Style29
 73
     1
 44
1.0
1001
ACAD
1000
MTEXTBEGIN
1070
    73
1070
     1
1070
    44
1040
1.0
1070
    74
1070
     0
1000
MTEXTEND
  0
LINE
  5
2A3
330
27C
100
AcDbEntity
  8
Symbol (ANSI)
100
AcDbLine
 10
0.6415747399297133
 20
2.54679585262918
 30
0.0
 11
1.426386535809585
 21
2.54679585262918
 31
0.0
  0
LINE
  5
2A4
330
27C
100
AcDbEntity
  8
Symbol (ANSI)
100
AcDbLine
 10
1.426386535809585
 20
2.54679585262918
 30
0.0
 11
1.426386535809585
 21
2.08346138538026
 31
0.0
  0
LINE
  5
2A5
330
27C
100
AcDbEntity
  8
Symbol (ANSI)
100
AcDbLine
 10
0.6415747399297133
 20
2.08346138538026
 30
0.0
 11
1.426386535809585
 21
2.08346138538026
 31
0.0
  0
MTEXT
  5
2A6
330
27C
100
AcDbEntity
  8
Symbol (ANSI)
100
AcDbMText
 10
0.9379208654270042
 20
2.253864437952517
 30
0.0
 40
0.1200000014830762
 41
0.0
 71
     7
 72
     1
  1
A2
  7
Text Style29
 73
     1
 44
1.0
1001
ACAD
1000
MTEXTBEGIN
1070
    73
1070
     1
1070
    44
1040
1.0
1070
    74
1070
     0
1000
MTEXTEND
  0
LINE
  5
2A7
330
27C
100
AcDbEntity
  8
Symbol (ANSI)
100
AcDbLine
 10
1.426386535809585
 20
2.54679585262918
 30
0.0
 11
2.252607598930282
 21
2.54679585262918
 31
0.0
  0
LINE
  5
2A8
330
27C
100
AcDbEntity
  8
Symbol (ANSI)
100
AcDbLine
 10
1.426386535809585
 20
2.54679585262918
 30
0.0
 11
1.426386535809585
 21
2.08346138538026
 31
0.0
  0
LINE
  5
2A9
330
27C
100
AcDbEntity
  8
Symbol (ANSI)
100
AcDbLine
 10
2.252607598930282
 20
2.54679585262918
 30
0.0
 11
2.252607598930282
 21
2.08346138538026
 31
0.0
  0
LINE
  5
2AA
330
27C
100
AcDbEntity
  8
Symbol (ANSI)
100
AcDbLine
 10
1.426386535809585
 20
2.08346138538026
 30
0.0
 11
2.252607598930282
 21
2.08346138538026
 31
0.0
  0
MTEXT
  5
2AB
330
27C
100
AcDbEntity
  8
Symbol (ANSI)
100
AcDbMText
 10
1.618874299756305
 20
2.252405766975084
 30
0.0
 40
0.1200000014830762
 41
0.0
 71
     7
 72
     1
  1
-0.368
  7
Text Style29
 73
     1
 44
1.0
1001
ACAD
1000
MTEXTBEGIN
1070
    73
1070
     1
1070
    44
1040
1.0
1070
    74
1070
     0
1000
MTEXTEND
  0
LINE
  5
2AC
330
27C
100
AcDbEntity
  8
Symbol (ANSI)
100
AcDbLine
 10
2.252607598930282
 20
2.54679585262918
 30
0.0
 11
3.099546893437206
 21
2.54679585262918
 31
0.0
  0
LINE
  5
2AD
330
27C
100
AcDbEntity
  8
Symbol (ANSI)
100
AcDbLine
 10
2.252607598930282
 20
2.54679585262918
 30
0.0
 11
2.252607598930282
 21
2.08346138538026
 31
0.0
  0
LINE
  5
2AE
330
27C
100
AcDbEntity
  8
Symbol (ANSI)
100
AcDbLine
 10
3.099546893437206
 20
2.54679585262918
 30
0.0
 11
3.099546893437206
 21
2.08346138538026
 31
0.0
  0
LINE
  5
2AF
330
27C
100
AcDbEntity
  8
Symbol (ANSI)
100
AcDbLine
 10
2.252607598930282
 20
2.08346138538026
 30
0.0
 11
3.099546893437206
 21
2.08346138538026
 31
0.0
  0
MTEXT
  5
2B0
330
27C
100
AcDbEntity
  8
Symbol (ANSI)
100
AcDbMText
 10
2.455454478570116
 20
2.252648878804656
 30
0.0
 40
0.1200000014830762
 41
0.0
 71
     7
 72
     1
  1
-0.099
  7
Text Style29
 73
     1
 44
1.0
1001
ACAD
1000
MTEXTBEGIN
1070
    73
1070
     1
1070
    44
1040
1.0
1070
    74
1070
     0
1000
MTEXTEND
  0
LINE
  5
2B1
330
27C
100
AcDbEntity
  8
Symbol (ANSI)
100
AcDbLine
 10
0.6415747399297133
 20
2.08346138538026
 30
0.0
 11
1.426386535809585
 21
2.08346138538026
 31
0.0
  0
LINE
  5
2B2
330
27C
100
AcDbEntity
  8
Symbol (ANSI)
100
AcDbLine
 10
1.426386535809585
 20
2.08346138538026
 30
0.0
 11
1.426386535809585
 21
1.837668357538184
 31
0.0
  0
LINE
  5
2B3
330
27C
100
AcDbEntity
  8
Symbol (ANSI)
100
AcDbLine
 10
0.6415747399297133
 20
1.837668357538184
 30
0.0
 11
1.426386535809585
 21
1.837668357538184
 31
0.0
  0
MTEXT
  5
2B4
330
27C
100
AcDbEntity
  8
Symbol (ANSI)
100
AcDbMText
 10
0.9643635508921788
 20
1.900370382457137
 30
0.0
 40
0.1200000014830762
 41
0.0
 71
     7
 72
     1
  1
B1
  7
Text Style29
 73
     1
 44
1.0
1001
ACAD
1000
MTEXTBEGIN
1070
    73
1070
     1
1070
    44
1040
1.0
1070
    74
1070
     0
1000
MTEXTEND
  0
LINE
  5
2B5
330
27C
100
AcDbEntity
  8
Symbol (ANSI)
100
AcDbLine
 10
1.426386535809585
 20
2.08346138538026
 30
0.0
 11
2.252607598930282
 21
2.08346138538026
 31
0.0
  0
LINE
  5
2B6
330
27C
100
AcDbEntity
  8
Symbol (ANSI)
100
AcDbLine
 10
1.426386535809585
 20
2.08346138538026
 30
0.0
 11
1.426386535809585
 21
1.837668357538184
 31
0.0
  0
LINE
  5
2B7
330
27C
100
AcDbEntity
  8
Symbol (ANSI)
100
AcDbLine
 10
2.252607598930282
 20
2.08346138538026
 30
0.0
 11
2.252607598930282
 21
1.837668357538184
 31
0.0
  0
LINE
  5
2B8
330
27C
100
AcDbEntity
  8
Symbol (ANSI)
100
AcDbLine
 10
1.426386535809585
 20
1.837668357538184
 30
0.0
 11
2.252607598930282
 21
1.837668357538184
 31
0.0
  0
MTEXT
  5
2B9
330
27C
100
AcDbEntity
  8
Symbol (ANSI)
100
AcDbMText
 10
1.57384998361438
 20
1.898085131259158
 30
0.0
 40
0.1200000014830762
 41
0.0
 71
     7
 72
     1
  1
-0.1691
  7
Text Style29
 73
     1
 44
1.0
1001
ACAD
1000
MTEXTBEGIN
1070
    73
1070
     1
1070
    44
1040
1.0
1070
    74
1070
     0
1000
MTEXTEND
  0
LINE
  5
2BA
330
27C
100
AcDbEntity
  8
Symbol (ANSI)
100
AcDbLine
 10
2.252607598930282
 20
2.08346138538026
 30
0.0
 11
3.099546893437206
 21
2.08346138538026
 31
0.0
  0
LINE
  5
2BB
330
27C
100
AcDbEntity
  8
Symbol (ANSI)
100
AcDbLine
 10
2.252607598930282
 20
2.08346138538026
 30
0.0
 11
2.252607598930282
 21
1.837668357538184
 31
0.0
  0
LINE
  5
2BC
330
27C
100
AcDbEntity
  8
Symbol (ANSI)
100
AcDbLine
 10
3.099546893437206
 20
2.08346138538026
 30
0.0
 11
3.099546893437206
 21
1.837668357538184
 31
0.0
  0
LINE
  5
2BD
330
27C
100
AcDbEntity
  8
Symbol (ANSI)
100
AcDbLine
 10
2.252607598930282
 20
1.837668357538184
 30
0.0
 11
3.099546893437206
 21
1.837668357538184
 31
0.0
  0
MTEXT
  5
2BE
330
27C
100
AcDbEntity
  8
Symbol (ANSI)
100
AcDbMText
 10
2.410430162428191
 20
1.898036508893244
 30
0.0
 40
0.1200000014830762
 41
0.0
 71
     7
 72
     1
  1
-0.3470
  7
Text Style29
 73
     1
 44
1.0
1001
ACAD
1000
MTEXTBEGIN
1070
    73
1070
     1
1070
    44
1040
1.0
1070
    74
1070
     0
1000
MTEXTEND
  0
MTEXT
  5
2BF
330
27C
100
AcDbEntity
  8
Symbol (ANSI)
100
AcDbMText
 10
3.795176991665799
 20
1.900826381478981
 30
0.0
 40
0.1200000014830762
 41
0.0
 71
     7
 72
     1
  1
TAP #2-56 
  7
Text Style29
 73
     1
 44
1.0
1001
ACAD
1000
MTEXTBEGIN
1070
    73
1070
     1
1070
    44
1040
1.0
1070
    74
1070
     0
1000
MTEXTEND
  0
MTEXT
  5
2C0
330
27C
100
AcDbEntity
  8
Symbol (ANSI)
100
AcDbMText
 10
4.655357339589018
 20
1.895246636307507
 30
0.0
 40
0.1200000014830762
 41
0.0
 71
     7
 72
     1
  1
x
  7
Text Style6
 73
     1
 44
1.0
1001
ACAD
1000
MTEXTBEGIN
1070
    73
1070
     1
1070
    44
1040
1.0
1070
    74
1070
     0
1000
MTEXTEND
  0
MTEXT
  5
2C1
330
27C
100
AcDbEntity
  8
Symbol (ANSI)
100
AcDbMText
 10
4.774903031653649
 20
1.900826381478981
 30
0.0
 40
0.1200000014830762
 41
0.0
 71
     7
 72
     1
  1
 0.21
  7
Text Style29
 73
     1
 44
1.0
1001
ACAD
1000
MTEXTBEGIN
1070
    73
1070
     1
1070
    44
1040
1.0
1070
    74
1070
     0
1000
MTEXTEND
  0
LINE
  5
2C2
330
27C
100
AcDbEntity
  8
Symbol (ANSI)
100
AcDbLine
 10
3.099546893437206
 20
2.08346138538026
 30
0.0
 11
5.842394728505323
 21
2.08346138538026
 31
0.0
  0
LINE
  5
2C3
330
27C
100
AcDbEntity
  8
Symbol (ANSI)
100
AcDbLine
 10
3.099546893437206
 20
2.08346138538026
 30
0.0
 11
3.099546893437206
 21
1.837668357538184
 31
0.0
  0
LINE
  5
2C4
330
27C
100
AcDbEntity
  8
Symbol (ANSI)
100
AcDbLine
 10
5.842394728505323
 20
2.08346138538026
 30
0.0
 11
5.842394728505323
 21
1.837668357538184
 31
0.0
  0
LINE
  5
2C5
330
27C
100
AcDbEntity
  8
Symbol (ANSI)
100
AcDbLine
 10
0.6415747399297133
 20
1.837668357538184
 30
0.0
 11
1.426386535809585
 21
1.837668357538184
 31
0.0
  0
LINE
  5
2C6
330
27C
100
AcDbEntity
  8
Symbol (ANSI)
100
AcDbLine
 10
1.426386535809585
 20
1.837668357538184
 30
0.0
 11
1.426386535809585
 21
1.591875329696108
 31
0.0
  0
LINE
  5
2C7
330
27C
100
AcDbEntity
  8
Symbol (ANSI)
100
AcDbLine
 10
0.6415747399297133
 20
1.591875329696108
 30
0.0
 11
1.426386535809585
 21
1.591875329696108
 31
0.0
  0
MTEXT
  5
2C8
330
27C
100
AcDbEntity
  8
Symbol (ANSI)
100
AcDbMText
 10
0.9499831559490615
 20
1.652632459978483
 30
0.0
 40
0.1200000014830762
 41
0.0
 71
     7
 72
     1
  1
C1
  7
Text Style29
 73
     1
 44
1.0
1001
ACAD
1000
MTEXTBEGIN
1070
    73
1070
     1
1070
    44
1040
1.0
1070
    74
1070
     0
1000
MTEXTEND
  0
LINE
  5
2C9
330
27C
100
AcDbEntity
  8
Symbol (ANSI)
100
AcDbLine
 10
1.426386535809585
 20
1.837668357538184
 30
0.0
 11
2.252607598930282
 21
1.837668357538184
 31
0.0
  0
LINE
  5
2CA
330
27C
100
AcDbEntity
  8
Symbol (ANSI)
100
AcDbLine
 10
1.426386535809585
 20
1.837668357538184
 30
0.0
 11
1.426386535809585
 21
1.591875329696108
 31
0.0
  0
LINE
  5
2CB
330
27C
100
AcDbEntity
  8
Symbol (ANSI)
100
AcDbLine
 10
2.252607598930282
 20
1.837668357538184
 30
0.0
 11
2.252607598930282
 21
1.591875329696108
 31
0.0
  0
LINE
  5
2CC
330
27C
100
AcDbEntity
  8
Symbol (ANSI)
100
AcDbLine
 10
1.426386535809585
 20
1.591875329696108
 30
0.0
 11
2.252607598930282
 21
1.591875329696108
 31
0.0
  0
MTEXT
  5
2CD
330
27C
100
AcDbEntity
  8
Symbol (ANSI)
100
AcDbMText
 10
1.57384998361438
 20
1.652292103417082
 30
0.0
 40
0.1200000014830762
 41
0.0
 71
     7
 72
     1
  1
-0.5751
  7
Text Style29
 73
     1
 44
1.0
1001
ACAD
1000
MTEXTBEGIN
1070
    73
1070
     1
1070
    44
1040
1.0
1070
    74
1070
     0
1000
MTEXTEND
  0
LINE
  5
2CE
330
27C
100
AcDbEntity
  8
Symbol (ANSI)
100
AcDbLine
 10
2.252607598930282
 20
1.837668357538184
 30
0.0
 11
3.099546893437206
 21
1.837668357538184
 31
0.0
  0
LINE
  5
2CF
330
27C
100
AcDbEntity
  8
Symbol (ANSI)
100
AcDbLine
 10
2.252607598930282
 20
1.837668357538184
 30
0.0
 11
2.252607598930282
 21
1.591875329696108
 31
0.0
  0
LINE
  5
2D0
330
27C
100
AcDbEntity
  8
Symbol (ANSI)
100
AcDbLine
 10
3.099546893437206
 20
1.837668357538184
 30
0.0
 11
3.099546893437206
 21
1.591875329696108
 31
0.0
  0
LINE
  5
2D1
330
27C
100
AcDbEntity
  8
Symbol (ANSI)
100
AcDbLine
 10
2.252607598930282
 20
1.591875329696108
 30
0.0
 11
3.099546893437206
 21
1.591875329696108
 31
0.0
  0
MTEXT
  5
2D2
330
27C
100
AcDbEntity
  8
Symbol (ANSI)
100
AcDbMText
 10
2.410430162428191
 20
1.652243481051168
 30
0.0
 40
0.1200000014830762
 41
0.0
 71
     7
 72
     1
  1
-0.2500
  7
Text Style29
 73
     1
 44
1.0
1001
ACAD
1000
MTEXTBEGIN
1070
    73
1070
     1
1070
    44
1040
1.0
1070
    74
1070
     0
1000
MTEXTEND
  0
MTEXT
  5
2D3
330
27C
100
AcDbEntity
  8
Symbol (ANSI)
100
AcDbMText
 10
3.569679672896735
 20
1.657030530228371
 30
0.0
 40
0.1200000014830762
 41
0.0
 71
     7
 72
     1
  1
REAM 
  7
Text Style29
 73
     1
 44
1.0
1001
ACAD
1000
MTEXTBEGIN
1070
    73
1070
     1
1070
    44
1040
1.0
1070
    74
1070
     0
1000
MTEXTEND
  0
MTEXT
  5
2D4
330
27C
100
AcDbEntity
  8
Symbol (ANSI)
100
AcDbMText
 10
4.032197777314791
 20
1.626914699774848
 30
0.0
 40
0.1200000014830762
 41
0.0
 71
     7
 72
     1
  1
n
  7
Text Style6
 73
     1
 44
1.0
1001
ACAD
1000
MTEXTBEGIN
1070
    73
1070
     1
1070
    44
1040
1.0
1070
    74
1070
     0
1000
MTEXTEND
  0
MTEXT
  5
2D5
330
27C
100
AcDbEntity
  8
Symbol (ANSI)
100
AcDbMText
 10
4.166099834733464
 20
1.65450216720082
 30
0.0
 40
0.1200000014830762
 41
0.0
 71
     7
 72
     1
  1
0.0945 
  7
Text Style29
 73
     1
 44
1.0
1001
ACAD
1000
MTEXTBEGIN
1070
    73
1070
     1
1070
    44
1040
1.0
1070
    74
1070
     0
1000
MTEXTEND
  0
MTEXT
  5
2D6
330
27C
100
AcDbEntity
  8
Symbol (ANSI)
100
AcDbMText
 10
4.724979219577786
 20
1.648922422029346
 30
0.0
 40
0.1200000014830762
 41
0.0
 71
     7
 72
     1
  1
x
  7
Text Style6
 73
     1
 44
1.0
1001
ACAD
1000
MTEXTBEGIN
1070
    73
1070
     1
1070
    44
1040
1.0
1070
    74
1070
     0
1000
MTEXTEND
  0
MTEXT
  5
2D7
330
27C
100
AcDbEntity
  8
Symbol (ANSI)
100
AcDbMText
 10
4.844524911642417
 20
1.65450216720082
 30
0.0
 40
0.1200000014830762
 41
0.0
 71
     7
 72
     1
  1
 0.25**
  7
Text Style29
 73
     1
 44
1.0
1001
ACAD
1000
MTEXTBEGIN
1070
    73
1070
     1
1070
    44
1040
1.0
1070
    74
1070
     0
1000
MTEXTEND
  0
LINE
  5
2D8
330
27C
100
AcDbEntity
  8
Symbol (ANSI)
100
AcDbLine
 10
3.099546893437206
 20
1.837668357538184
 30
0.0
 11
5.842394728505323
 21
1.837668357538184
 31
0.0
  0
LINE
  5
2D9
330
27C
100
AcDbEntity
  8
Symbol (ANSI)
100
AcDbLine
 10
3.099546893437206
 20
1.837668357538184
 30
0.0
 11
3.099546893437206
 21
1.591875329696108
 31
0.0
  0
LINE
  5
2DA
330
27C
100
AcDbEntity
  8
Symbol (ANSI)
100
AcDbLine
 10
5.842394728505323
 20
1.837668357538184
 30
0.0
 11
5.842394728505323
 21
1.591875329696108
 31
0.0
  0
LINE
  5
2DB
330
27C
100
AcDbEntity
  8
Symbol (ANSI)
100
AcDbLine
 10
0.6415747399297133
 20
1.591875329696108
 30
0.0
 11
1.426386535809585
 21
1.591875329696108
 31
0.0
  0
LINE
  5
2DC
330
27C
100
AcDbEntity
  8
Symbol (ANSI)
100
AcDbLine
 10
1.426386535809585
 20
1.591875329696108
 30
0.0
 11
1.426386535809585
 21
1.346082301854031
 31
0.0
  0
LINE
  5
2DD
330
27C
100
AcDbEntity
  8
Symbol (ANSI)
100
AcDbLine
 10
0.6415747399297133
 20
1.346082301854031
 30
0.0
 11
1.426386535809585
 21
1.346082301854031
 31
0.0
  0
MTEXT
  5
2DE
330
27C
100
AcDbEntity
  8
Symbol (ANSI)
100
AcDbMText
 10
0.9499831559490615
 20
1.406644942672749
 30
0.0
 40
0.1200000014830762
 41
0.0
 71
     7
 72
     1
  1
C2
  7
Text Style29
 73
     1
 44
1.0
1001
ACAD
1000
MTEXTBEGIN
1070
    73
1070
     1
1070
    44
1040
1.0
1070
    74
1070
     0
1000
MTEXTEND
  0
LINE
  5
2DF
330
27C
100
AcDbEntity
  8
Symbol (ANSI)
100
AcDbLine
 10
1.426386535809585
 20
1.591875329696108
 30
0.0
 11
2.252607598930282
 21
1.591875329696108
 31
0.0
  0
LINE
  5
2E0
330
27C
100
AcDbEntity
  8
Symbol (ANSI)
100
AcDbLine
 10
1.426386535809585
 20
1.591875329696108
 30
0.0
 11
1.426386535809585
 21
1.346082301854031
 31
0.0
  0
LINE
  5
2E1
330
27C
100
AcDbEntity
  8
Symbol (ANSI)
100
AcDbLine
 10
2.252607598930282
 20
1.591875329696108
 30
0.0
 11
2.252607598930282
 21
1.346082301854031
 31
0.0
  0
LINE
  5
2E2
330
27C
100
AcDbEntity
  8
Symbol (ANSI)
100
AcDbLine
 10
1.426386535809585
 20
1.346082301854031
 30
0.0
 11
2.252607598930282
 21
1.346082301854031
 31
0.0
  0
MTEXT
  5
2E3
330
27C
100
AcDbEntity
  8
Symbol (ANSI)
100
AcDbMText
 10
1.57384998361438
 20
1.406499075575006
 30
0.0
 40
0.1200000014830762
 41
0.0
 71
     7
 72
     1
  1
-0.1691
  7
Text Style29
 73
     1
 44
1.0
1001
ACAD
1000
MTEXTBEGIN
1070
    73
1070
     1
1070
    44
1040
1.0
1070
    74
1070
     0
1000
MTEXTEND
  0
LINE
  5
2E4
330
27C
100
AcDbEntity
  8
Symbol (ANSI)
100
AcDbLine
 10
2.252607598930282
 20
1.591875329696108
 30
0.0
 11
3.099546893437206
 21
1.591875329696108
 31
0.0
  0
LINE
  5
2E5
330
27C
100
AcDbEntity
  8
Symbol (ANSI)
100
AcDbLine
 10
2.252607598930282
 20
1.591875329696108
 30
0.0
 11
2.252607598930282
 21
1.346082301854031
 31
0.0
  0
LINE
  5
2E6
330
27C
100
AcDbEntity
  8
Symbol (ANSI)
100
AcDbLine
 10
3.099546893437206
 20
1.591875329696108
 30
0.0
 11
3.099546893437206
 21
1.346082301854031
 31
0.0
  0
LINE
  5
2E7
330
27C
100
AcDbEntity
  8
Symbol (ANSI)
100
AcDbLine
 10
2.252607598930282
 20
1.346082301854031
 30
0.0
 11
3.099546893437206
 21
1.346082301854031
 31
0.0
  0
MTEXT
  5
2E8
330
27C
100
AcDbEntity
  8
Symbol (ANSI)
100
AcDbMText
 10
2.410430162428191
 20
1.406499075575006
 30
0.0
 40
0.1200000014830762
 41
0.0
 71
     7
 72
     1
  1
-0.1000
  7
Text Style29
 73
     1
 44
1.0
1001
ACAD
1000
MTEXTBEGIN
1070
    73
1070
     1
1070
    44
1040
1.0
1070
    74
1070
     0
1000
MTEXTEND
  0
LINE
  5
2E9
330
27C
100
AcDbEntity
  8
Symbol (ANSI)
100
AcDbLine
 10
0.6415747399297133
 20
1.346082301854031
 30
0.0
 11
1.426386535809585
 21
1.346082301854031
 31
0.0
  0
LINE
  5
2EA
330
27C
100
AcDbEntity
  8
Symbol (ANSI)
100
AcDbLine
 10
1.426386535809585
 20
1.346082301854031
 30
0.0
 11
1.426386535809585
 21
0.7967053808769152
 31
0.0
  0
MTEXT
  5
2EB
330
27C
100
AcDbEntity
  8
Symbol (ANSI)
100
AcDbMText
 10
0.9570215727740031
 20
1.011199352363388
 30
0.0
 40
0.1200000014830762
 41
0.0
 71
     7
 72
     1
  1
D1
  7
Text Style29
 73
     1
 44
1.0
1001
ACAD
1000
MTEXTBEGIN
1070
    73
1070
     1
1070
    44
1040
1.0
1070
    74
1070
     0
1000
MTEXTEND
  0
LINE
  5
2EC
330
27C
100
AcDbEntity
  8
Symbol (ANSI)
100
AcDbLine
 10
1.426386535809585
 20
1.346082301854031
 30
0.0
 11
2.252607598930282
 21
1.346082301854031
 31
0.0
  0
LINE
  5
2ED
330
27C
100
AcDbEntity
  8
Symbol (ANSI)
100
AcDbLine
 10
1.426386535809585
 20
1.346082301854031
 30
0.0
 11
1.426386535809585
 21
0.7967053808769152
 31
0.0
  0
LINE
  5
2EE
330
27C
100
AcDbEntity
  8
Symbol (ANSI)
100
AcDbLine
 10
2.252607598930282
 20
1.346082301854031
 30
0.0
 11
2.252607598930282
 21
0.7967053808769152
 31
0.0
  0
MTEXT
  5
2EF
330
27C
100
AcDbEntity
  8
Symbol (ANSI)
100
AcDbMText
 10
1.618874299756305
 20
1.008914101165409
 30
0.0
 40
0.1200000014830762
 41
0.0
 71
     7
 72
     1
  1
-0.715
  7
Text Style29
 73
     1
 44
1.0
1001
ACAD
1000
MTEXTBEGIN
1070
    73
1070
     1
1070
    44
1040
1.0
1070
    74
1070
     0
1000
MTEXTEND
  0
LINE
  5
2F0
330
27C
100
AcDbEntity
  8
Symbol (ANSI)
100
AcDbLine
 10
2.252607598930282
 20
1.346082301854031
 30
0.0
 11
3.099546893437206
 21
1.346082301854031
 31
0.0
  0
LINE
  5
2F1
330
27C
100
AcDbEntity
  8
Symbol (ANSI)
100
AcDbLine
 10
2.252607598930282
 20
1.346082301854031
 30
0.0
 11
2.252607598930282
 21
0.7967053808769152
 31
0.0
  0
LINE
  5
2F2
330
27C
100
AcDbEntity
  8
Symbol (ANSI)
100
AcDbLine
 10
3.099546893437206
 20
1.346082301854031
 30
0.0
 11
3.099546893437206
 21
0.7967053808769152
 31
0.0
  0
MTEXT
  5
2F3
330
27C
100
AcDbEntity
  8
Symbol (ANSI)
100
AcDbMText
 10
2.455454478570116
 20
1.008865478799495
 30
0.0
 40
0.1200000014830762
 41
0.0
 71
     7
 72
     1
  1
-0.347
  7
Text Style29
 73
     1
 44
1.0
1001
ACAD
1000
MTEXTBEGIN
1070
    73
1070
     1
1070
    44
1040
1.0
1070
    74
1070
     0
1000
MTEXTEND
  0
LINE
  5
2F4
330
27C
100
AcDbEntity
  8
Symbol (ANSI)
100
AcDbLine
 10
3.099546893437206
 20
1.346082301854031
 30
0.0
 11
5.842394728505323
 21
1.346082301854031
 31
0.0
  0
LINE
  5
2F5
330
27C
100
AcDbEntity
  8
Symbol (ANSI)
100
AcDbLine
 10
3.099546893437206
 20
1.346082301854031
 30
0.0
 11
3.099546893437206
 21
0.7967053808769152
 31
0.0
  0
MTEXT
  5
2F6
330
27C
100
AcDbEntity
  8
Symbol (ANSI)
100
AcDbMText
 10
3.741497881638126
 20
1.185986206643335
 30
0.0
 40
0.1200000014830762
 41
0.0
 71
     7
 72
     1
  1
TAP 2-56 UNC
  7
Text Style29
 73
     1
 44
1.0
1001
ACAD
1000
MTEXTBEGIN
1070
    73
1070
     1
1070
    44
1040
1.0
1070
    74
1070
     0
1000
MTEXTEND
  0
MTEXT
  5
2F7
330
27C
100
AcDbEntity
  8
Symbol (ANSI)
100
AcDbMText
 10
4.799085058434145
 20
1.180406461471861
 30
0.0
 40
0.1200000014830762
 41
0.0
 71
     7
 72
     1
  1
x
  7
Text Style6
 73
     1
 44
1.0
1001
ACAD
1000
MTEXTBEGIN
1070
    73
1070
     1
1070
    44
1040
1.0
1070
    74
1070
     0
1000
MTEXTEND
  0
MTEXT
  5
2F8
330
27C
100
AcDbEntity
  8
Symbol (ANSI)
100
AcDbMText
 10
4.918630750498776
 20
1.188514569670886
 30
0.0
 40
0.1200000014830762
 41
0.0
 71
     7
 72
     1
  1
 .41
  7
Text Style29
 73
     1
 44
1.0
1001
ACAD
1000
MTEXTBEGIN
1070
    73
1070
     1
1070
    44
1040
1.0
1070
    74
1070
     0
1000
MTEXTEND
  0
MTEXT
  5
2F9
330
27C
100
AcDbEntity
  8
Symbol (ANSI)
100
AcDbMText
 10
3.688454285602273
 20
0.8605864501207605
 30
0.0
 40
0.1200000014830762
 41
0.0
 71
     7
 72
     1
  1
v
  7
Text Style6
 73
     1
 44
1.0
1001
ACAD
1000
MTEXTBEGIN
1070
    73
1070
     1
1070
    44
1040
1.0
1070
    74
1070
     0
1000
MTEXTEND
  0
MTEXT
  5
2FA
330
27C
100
AcDbEntity
  8
Symbol (ANSI)
100
AcDbMText
 10
3.931157054145847
 20
0.8618605814091788
 30
0.0
 40
0.1200000014830762
 41
0.0
 71
     7
 72
     1
  1
 
  7
Text Style29
 73
     1
 44
1.0
1001
ACAD
1000
MTEXTBEGIN
1070
    73
1070
     1
1070
    44
1040
1.0
1070
    74
1070
     0
1000
MTEXTEND
  0
MTEXT
  5
2FB
330
27C
100
AcDbEntity
  8
Symbol (ANSI)
100
AcDbMText
 10
3.996537805528495
 20
0.8317447509556556
 30
0.0
 40
0.1200000014830762
 41
0.0
 71
     7
 72
     1
  1
n
  7
Text Style6
 73
     1
 44
1.0
1001
ACAD
1000
MTEXTBEGIN
1070
    73
1070
     1
1070
    44
1040
1.0
1070
    74
1070
     0
1000
MTEXTEND
  0
MTEXT
  5
2FC
330
27C
100
AcDbEntity
  8
Symbol (ANSI)
100
AcDbMText
 10
4.130439862947168
 20
0.8593322183816278
 30
0.0
 40
0.1200000014830762
 41
0.0
 71
     7
 72
     1
  1
0.096 in 
  7
Text Style29
 73
     1
 44
1.0
1001
ACAD
1000
MTEXTBEGIN
1070
    73
1070
     1
1070
    44
1040
1.0
1070
    74
1070
     0
1000
MTEXTEND
  0
MTEXT
  5
2FD
330
27C
100
AcDbEntity
  8
Symbol (ANSI)
100
AcDbMText
 10
4.780534770061993
 20
0.8537524732101534
 30
0.0
 40
0.1200000014830762
 41
0.0
 71
     7
 72
     1
  1
x
  7
Text Style6
 73
     1
 44
1.0
1001
ACAD
1000
MTEXTBEGIN
1070
    73
1070
     1
1070
    44
1040
1.0
1070
    74
1070
     0
1000
MTEXTEND
  0
MTEXT
  5
2FE
330
27C
100
AcDbEntity
  8
Symbol (ANSI)
100
AcDbMText
 10
4.900080462126624
 20
0.8591377289179702
 30
0.0
 40
0.1200000014830762
 41
0.0
 71
     7
 72
     1
  1
 0.18
  7
Text Style29
 73
     1
 44
1.0
1001
ACAD
1000
MTEXTBEGIN
1070
    73
1070
     1
1070
    44
1040
1.0
1070
    74
1070
     0
1000
MTEXTEND
  0
LINE
  5
2FF
330
27C
100
AcDbEntity
  8
Symbol (ANSI)
100
AcDbLine
 10
3.099546893437206
 20
1.346082301854031
 30
0.0
 11
5.842394728505323
 21
1.346082301854031
 31
0.0
  0
LINE
  5
300
330
27C
100
AcDbEntity
  8
Symbol (ANSI)
100
AcDbLine
 10
3.099546893437206
 20
1.346082301854031
 30
0.0
 11
3.099546893437206
 21
0.7967053808769152
 31
0.0
  0
LINE
  5
301
330
27C
100
AcDbEntity
  8
Symbol (ANSI)
100
AcDbLine
 10
5.842394728505323
 20
1.346082301854031
 30
0.0
 11
5.842394728505323
 21
0.7967053808769152
 31
0.0
  0
LINE
  5
302
330
27C
100
AcDbEntity
  8
Symbol (ANSI)
100
AcDbLine
 10
0.6415747399297133
 20
0.7967053808769152
 30
0.0
 11
0.6415747399297133
 21
3.721685075726238
 31
0.0
  0
LINE
  5
303
330
27C
100
AcDbEntity
  8
Symbol (ANSI)
100
AcDbLine
 10
0.6415747399297133
 20
3.721685075726238
 30
0.0
 11
5.842394728505323
 21
3.721685075726238
 31
0.0
  0
LINE
  5
304
330
27C
100
AcDbEntity
  8
Symbol (ANSI)
100
AcDbLine
 10
5.842394728505323
 20
3.721685075726238
 30
0.0
 11
5.842394728505323
 21
0.7967053808769152
 31
0.0
  0
LINE
  5
305
330
27C
100
AcDbEntity
  8
Symbol (ANSI)
100
AcDbLine
 10
5.842394728505323
 20
0.7967053808769152
 30
0.0
 11
0.6415747399297133
 21
0.7967053808769152
 31
0.0
  0
ENDBLK
  5
27E
330
27C
100
AcDbEntity
  8
0
100
AcDbBlockEnd
  0
BLOCK
  5
308
330
307
100
AcDbEntity
  8
0
100
AcDbBlockBegin
  2
Leader Text3
 70
     0
 10
0.0
 20
0.0
 30
0.0
  3
Leader Text3
  1

  0
LINE
  5
30A
330
307
100
AcDbEntity
  8
Symbol (ANSI)
100
AcDbLine
 10
8.332918126852867
 20
3.056199950801808
 30
0.0
 11
8.293183896734785
 21
2.966151573070935
 31
0.0
  0
POLYLINE
  5
30B
330
307
100
AcDbEntity
  8
Symbol (ANSI)
100
AcDb2dPolyline
 66
     1
 10
0.0
 20
0.0
 30
0.0
 70
   128
  0
VERTEX
  5
30C
330
30B
100
AcDbEntity
  8
Symbol (ANSI)
100
AcDbVertex
100
AcDb2dVertex
 10
8.314908395602007
 20
3.064146755248542
 30
0.0
  0
VERTEX
  5
30D
330
30B
100
AcDbEntity
  8
Symbol (ANSI)
100
AcDbVertex
100
AcDb2dVertex
 10
8.293184145229067
 20
2.966151650496355
 30
0.0
  0
VERTEX
  5
30F
330
30B
100
AcDbEntity
  8
Symbol (ANSI)
100
AcDbVertex
100
AcDb2dVertex
 10
8.350927998700479
 20
3.048253059387206
 30
0.0
  0
VERTEX
  5
310
330
30B
100
AcDbEntity
  8
Symbol (ANSI)
100
AcDbVertex
100
AcDb2dVertex
 10
8.314908395602007
 20
3.064146755248542
 30
0.0
  0
SEQEND
  5
30E
330
30B
100
AcDbEntity
  8
Symbol (ANSI)
  0
SOLID
  5
311
330
307
100
AcDbEntity
  8
Symbol (ANSI)
100
AcDbTrace
 10
8.314908395602007
 20
3.064146755248542
 30
0.0
 11
8.293184145229067
 21
2.966151650496355
 31
0.0
 12
8.350927998700479
 22
3.048253059387206
 32
0.0
 13
8.314908395602007
 23
3.064146755248542
 33
0.0
  0
LINE
  5
312
330
307
100
AcDbEntity
  8
Symbol (ANSI)
100
AcDbLine
 10
8.314908451306692
 20
3.064146796825424
 30
0.0
 11
8.293183896734785
 21
2.966151573070935
 31
0.0
  0
LINE
  5
313
330
307
100
AcDbEntity
  8
Symbol (ANSI)
100
AcDbLine
 10
8.293183896734785
 20
2.966151573070935
 30
0.0
 11
8.350927802399041
 21
3.048253104778191
 31
0.0
  0
LINE
  5
314
330
307
100
AcDbEntity
  8
Symbol (ANSI)
100
AcDbLine
 10
8.350927802399041
 20
3.048253104778191
 30
0.0
 11
8.314908451306692
 21
3.064146796825424
 31
0.0
  0
LINE
  5
315
330
307
100
AcDbEntity
  8
Symbol (ANSI)
100
AcDbLine
 10
8.332918126852867
 20
3.056199950801808
 30
0.0
 11
8.544431182935479
 21
3.535545027138661
 31
0.0
  0
LINE
  5
316
330
307
100
AcDbEntity
  8
Symbol (ANSI)
100
AcDbLine
 10
8.544431182935479
 20
3.535545027138661
 30
0.0
 11
8.642856379785873
 21
3.535545027138661
 31
0.0
  0
MTEXT
  5
317
330
307
100
AcDbEntity
  8
Symbol (ANSI)
100
AcDbMText
 10
8.641318486085086
 20
3.474280846086458
 30
0.0
 40
0.1200000014830762
 41
0.0
 71
     7
 72
     1
  1
A2
  7
Text Style29
 73
     1
 44
1.0
1001
ACAD
1000
MTEXTBEGIN
1070
    73
1070
     1
1070
    44
1040
1.0
1070
    74
1070
     0
1000
MTEXTEND
  0
ENDBLK
  5
309
330
307
100
AcDbEntity
  8
0
100
AcDbBlockEnd
  0
BLOCK
  5
31A
330
319
100
AcDbEntity
  8
0
100
AcDbBlockBegin
  2
Leader Text4
 70
     0
 10
0.0
 20
0.0
 30
0.0
  3
Leader Text4
  1

  0
LINE
  5
31C
330
319
100
AcDbEntity
  8
Symbol (ANSI)
100
AcDbLine
 10
7.532968018214723
 20
3.059577019045799
 30
0.0
 11
7.496078926761392
 21
2.968326187231582
 31
0.0
  0
POLYLINE
  5
31D
330
319
100
AcDbEntity
  8
Symbol (ANSI)
100
AcDb2dPolyline
 66
     1
 10
0.0
 20
0.0
 30
0.0
 70
   128
  0
VERTEX
  5
31E
330
31D
100
AcDbEntity
  8
Symbol (ANSI)
100
AcDbVertex
100
AcDb2dVertex
 10
7.514717822938452
 20
3.06695483800933
 30
0.0
  0
VERTEX
  5
31F
330
31D
100
AcDbEntity
  8
Symbol (ANSI)
100
AcDbVertex
100
AcDb2dVertex
 10
7.49607912198765
 20
2.96832614057646
 30
0.0
  0
VERTEX
  5
321
330
31D
100
AcDbEntity
  8
Symbol (ANSI)
100
AcDbVertex
100
AcDb2dVertex
 10
7.55121801781842
 20
3.052199168468084
 30
0.0
  0
VERTEX
  5
322
330
31D
100
AcDbEntity
  8
Symbol (ANSI)
100
AcDbVertex
100
AcDb2dVertex
 10
7.514717822938452
 20
3.06695483800933
 30
0.0
  0
SEQEND
  5
320
330
31D
100
AcDbEntity
  8
Symbol (ANSI)
  0
SOLID
  5
323
330
319
100
AcDbEntity
  8
Symbol (ANSI)
100
AcDbTrace
 10
7.514717822938452
 20
3.06695483800933
 30
0.0
 11
7.49607912198765
 21
2.96832614057646
 31
0.0
 12
7.55121801781842
 22
3.052199168468084
 32
0.0
 13
7.514717822938452
 23
3.06695483800933
 33
0.0
  0
LINE
  5
324
330
319
100
AcDbEntity
  8
Symbol (ANSI)
100
AcDbLine
 10
7.51471785185188
 20
3.066954837336465
 30
0.0
 11
7.496078926761392
 21
2.968326187231582
 31
0.0
  0
LINE
  5
325
330
319
100
AcDbEntity
  8
Symbol (ANSI)
100
AcDbLine
 10
7.496078926761392
 20
2.968326187231582
 30
0.0
 11
7.551218184577566
 21
3.052199200755133
 31
0.0
  0
LINE
  5
326
330
319
100
AcDbEntity
  8
Symbol (ANSI)
100
AcDbLine
 10
7.551218184577566
 20
3.052199200755133
 30
0.0
 11
7.51471785185188
 21
3.066954837336465
 31
0.0
  0
LINE
  5
327
330
319
100
AcDbEntity
  8
Symbol (ANSI)
100
AcDbLine
 10
7.532968018214723
 20
3.059577019045799
 30
0.0
 11
7.734004668388727
 21
3.556872041253924
 31
0.0
  0
LINE
  5
328
330
319
100
AcDbEntity
  8
Symbol (ANSI)
100
AcDbLine
 10
7.734004668388727
 20
3.556872041253924
 30
0.0
 11
7.832429865239121
 21
3.556872041253924
 31
0.0
  0
MTEXT
  5
329
330
319
100
AcDbEntity
  8
Symbol (ANSI)
100
AcDbMText
 10
7.830891971538333
 20
3.49667755225184
 30
0.0
 40
0.1200000014830762
 41
0.0
 71
     7
 72
     1
  1
A1
  7
Text Style29
 73
     1
 44
1.0
1001
ACAD
1000
MTEXTBEGIN
1070
    73
1070
     1
1070
    44
1040
1.0
1070
    74
1070
     0
1000
MTEXTEND
  0
ENDBLK
  5
31B
330
319
100
AcDbEntity
  8
0
100
AcDbBlockEnd
  0
BLOCK
  5
32D
330
32C
100
AcDbEntity
  8
0
100
AcDbBlockBegin
  2
Leader Text5
 70
     0
 10
0.0
 20
0.0
 30
0.0
  3
Leader Text5
  1

  0
LINE
  5
32F
330
32C
100
AcDbEntity
  8
Symbol (ANSI)
100
AcDbLine
 10
6.889444038763418
 20
5.448455849007148
 30
0.0
 11
6.869491003913965
 21
5.544837360591762
 31
0.0
  0
POLYLINE
  5
330
330
32C
100
AcDbEntity
  8
Symbol (ANSI)
100
AcDb2dPolyline
 66
     1
 10
0.0
 20
0.0
 30
0.0
 70
   128
  0
VERTEX
  5
331
330
330
100
AcDbEntity
  8
Symbol (ANSI)
100
AcDbVertex
100
AcDb2dVertex
 10
6.908720121608943
 20
5.452446299275075
 30
0.0
  0
VERTEX
  5
332
330
330
100
AcDbEntity
  8
Symbol (ANSI)
100
AcDbVertex
100
AcDb2dVertex
 10
6.869491066519668
 20
5.544837441031387
 30
0.0
  0
VERTEX
  5
334
330
330
100
AcDbEntity
  8
Symbol (ANSI)
100
AcDbVertex
100
AcDb2dVertex
 10
6.870167649637056
 20
5.444465096541276
 30
0.0
  0
VERTEX
  5
335
330
330
100
AcDbEntity
  8
Symbol (ANSI)
100
AcDbVertex
100
AcDb2dVertex
 10
6.908720121608943
 20
5.452446299275075
 30
0.0
  0
SEQEND
  5
333
330
330
100
AcDbEntity
  8
Symbol (ANSI)
  0
SOLID
  5
336
330
32C
100
AcDbEntity
  8
Symbol (ANSI)
100
AcDbTrace
 10
6.908720121608943
 20
5.452446299275075
 30
0.0
 11
6.869491066519668
 21
5.544837441031387
 31
0.0
 12
6.870167649637056
 22
5.444465096541276
 32
0.0
 13
6.908720121608943
 23
5.452446299275075
 33
0.0
  0
LINE
  5
337
330
32C
100
AcDbEntity
  8
Symbol (ANSI)
100
AcDbLine
 10
6.908720341080342
 20
5.452446455977039
 30
0.0
 11
6.869491003913965
 21
5.544837360591762
 31
0.0
  0
LINE
  5
338
330
32C
100
AcDbEntity
  8
Symbol (ANSI)
100
AcDbLine
 10
6.869491003913965
 20
5.544837360591762
 30
0.0
 11
6.870167736446496
 21
5.444465242037257
 31
0.0
  0
LINE
  5
339
330
32C
100
AcDbEntity
  8
Symbol (ANSI)
100
AcDbLine
 10
6.870167736446496
 20
5.444465242037257
 30
0.0
 11
6.908720341080342
 21
5.452446455977039
 31
0.0
  0
LINE
  5
33A
330
32C
100
AcDbEntity
  8
Symbol (ANSI)
100
AcDbLine
 10
6.889444038763418
 20
5.448455849007148
 30
0.0
 11
6.950276197035884
 21
5.154611057400654
 31
0.0
  0
LINE
  5
33B
330
32C
100
AcDbEntity
  8
Symbol (ANSI)
100
AcDbLine
 10
6.950276197035884
 20
5.154611057400654
 30
0.0
 11
7.048701393886277
 21
5.154611057400654
 31
0.0
  0
MTEXT
  5
33C
330
32C
100
AcDbEntity
  8
Symbol (ANSI)
100
AcDbMText
 10
7.068501775283915
 20
5.093346876348451
 30
0.0
 40
0.1200000014830762
 41
0.0
 71
     7
 72
     1
  1
5
  7
Text Style29
 73
     1
 44
1.0
1001
ACAD
1000
MTEXTBEGIN
1070
    73
1070
     1
1070
    44
1040
1.0
1070
    74
1070
     0
1000
MTEXTEND
  0
ENDBLK
  5
32E
330
32C
100
AcDbEntity
  8
0
100
AcDbBlockEnd
  0
BLOCK
  5
33F
330
33E
100
AcDbEntity
  8
0
100
AcDbBlockBegin
  2
Leader Text6
 70
     0
 10
0.0
 20
0.0
 30
0.0
  3
Leader Text6
  1

  0
LINE
  5
341
330
33E
100
AcDbEntity
  8
Symbol (ANSI)
100
AcDbLine
 10
8.446012356097838
 20
6.700101265035267
 30
0.0
 11
8.50701075500179
 21
6.622856752568729
 31
0.0
  0
POLYLINE
  5
342
330
33E
100
AcDbEntity
  8
Symbol (ANSI)
100
AcDb2dPolyline
 66
     1
 10
0.0
 20
0.0
 30
0.0
 70
   128
  0
VERTEX
  5
343
330
342
100
AcDbEntity
  8
Symbol (ANSI)
100
AcDbVertex
100
AcDb2dVertex
 10
8.430563558743694
 20
6.687901714655357
 30
0.0
  0
VERTEX
  5
344
330
342
100
AcDbEntity
  8
Symbol (ANSI)
100
AcDbVertex
100
AcDb2dVertex
 10
8.507010692686545
 20
6.622856620728499
 30
0.0
  0
VERTEX
  5
346
330
342
100
AcDbEntity
  8
Symbol (ANSI)
100
AcDbVertex
100
AcDb2dVertex
 10
8.461461104745939
 20
6.712300758662185
 30
0.0
  0
VERTEX
  5
347
330
342
100
AcDbEntity
  8
Symbol (ANSI)
100
AcDbVertex
100
AcDb2dVertex
 10
8.430563558743694
 20
6.687901714655357
 30
0.0
  0
SEQEND
  5
345
330
342
100
AcDbEntity
  8
Symbol (ANSI)
  0
SOLID
  5
348
330
33E
100
AcDbEntity
  8
Symbol (ANSI)
100
AcDbTrace
 10
8.430563558743694
 20
6.687901714655357
 30
0.0
 11
8.507010692686545
 21
6.622856620728499
 31
0.0
 12
8.461461104745939
 22
6.712300758662185
 32
0.0
 13
8.430563558743694
 23
6.687901714655357
 33
0.0
  0
LINE
  5
349
330
33E
100
AcDbEntity
  8
Symbol (ANSI)
100
AcDbLine
 10
8.430563453604531
 20
6.687901585254477
 30
0.0
 11
8.50701075500179
 21
6.622856752568729
 31
0.0
  0
LINE
  5
34A
330
33E
100
AcDbEntity
  8
Symbol (ANSI)
100
AcDbLine
 10
8.50701075500179
 20
6.622856752568729
 30
0.0
 11
8.461461258591146
 21
6.712300944816059
 31
0.0
  0
LINE
  5
34B
330
33E
100
AcDbEntity
  8
Symbol (ANSI)
100
AcDbLine
 10
8.461461258591146
 20
6.712300944816059
 30
0.0
 11
8.430563453604531
 21
6.687901585254477
 31
0.0
  0
LINE
  5
34C
330
33E
100
AcDbEntity
  8
Symbol (ANSI)
100
AcDbLine
 10
8.446012356097838
 20
6.700101265035267
 30
0.0
 11
7.924033072188564
 21
7.361102799955784
 31
0.0
  0
LINE
  5
34D
330
33E
100
AcDbEntity
  8
Symbol (ANSI)
100
AcDbLine
 10
7.924033072188564
 20
7.361102799955784
 30
0.0
 11
7.825607875338169
 21
7.361102799955784
 31
0.0
  0
MTEXT
  5
34E
330
33E
100
AcDbEntity
  8
Symbol (ANSI)
100
AcDbMText
 10
7.749015824669408
 20
7.298720304487549
 30
0.0
 40
0.1200000014830762
 41
0.0
 71
     7
 72
     1
  1
6
  7
Text Style29
 73
     1
 44
1.0
1001
ACAD
1000
MTEXTBEGIN
1070
    73
1070
     1
1070
    44
1040
1.0
1070
    74
1070
     0
1000
MTEXTEND
  0
ENDBLK
  5
340
330
33E
100
AcDbEntity
  8
0
100
AcDbBlockEnd
  0
BLOCK
  5
351
330
350
100
AcDbEntity
  8
0
100
AcDbBlockBegin
  2
Leader Text7
 70
     0
 10
0.0
 20
0.0
 30
0.0
  3
Leader Text7
  1

  0
LINE
  5
353
330
350
100
AcDbEntity
  8
Symbol (ANSI)
100
AcDbLine
 10
9.038477649942679
 20
7.056541515713986
 30
0.0
 11
8.998227172123959
 21
6.966722706935404
 31
0.0
  0
POLYLINE
  5
354
330
350
100
AcDbEntity
  8
Symbol (ANSI)
100
AcDb2dPolyline
 66
     1
 10
0.0
 20
0.0
 30
0.0
 70
   128
  0
VERTEX
  5
355
330
354
100
AcDbEntity
  8
Symbol (ANSI)
100
AcDbVertex
100
AcDb2dVertex
 10
9.020514000119186
 20
7.064591805765947
 30
0.0
  0
VERTEX
  5
356
330
354
100
AcDbEntity
  8
Symbol (ANSI)
100
AcDbVertex
100
AcDb2dVertex
 10
8.998227307176964
 20
6.966723044087567
 30
0.0
  0
VERTEX
  5
358
330
354
100
AcDbEntity
  8
Symbol (ANSI)
100
AcDbVertex
100
AcDb2dVertex
 10
9.05644123948465
 20
7.04849123016117
 30
0.0
  0
VERTEX
  5
359
330
354
100
AcDbEntity
  8
Symbol (ANSI)
100
AcDbVertex
100
AcDb2dVertex
 10
9.020514000119186
 20
7.064591805765947
 30
0.0
  0
SEQEND
  5
357
330
354
100
AcDbEntity
  8
Symbol (ANSI)
  0
SOLID
  5
35A
330
350
100
AcDbEntity
  8
Symbol (ANSI)
100
AcDbTrace
 10
9.020514000119186
 20
7.064591805765947
 30
0.0
 11
8.998227307176964
 21
6.966723044087567
 31
0.0
 12
9.05644123948465
 22
7.04849123016117
 32
0.0
 13
9.020514000119186
 23
7.064591805765947
 33
0.0
  0
LINE
  5
35B
330
350
100
AcDbEntity
  8
Symbol (ANSI)
100
AcDbLine
 10
9.020513888186963
 20
7.064591611277729
 30
0.0
 11
8.998227172123959
 21
6.966722706935404
 31
0.0
  0
LINE
  5
35C
330
350
100
AcDbEntity
  8
Symbol (ANSI)
100
AcDbLine
 10
8.998227172123959
 20
6.966722706935404
 30
0.0
 11
9.056441411698397
 21
7.048491420150241
 31
0.0
  0
LINE
  5
35D
330
350
100
AcDbEntity
  8
Symbol (ANSI)
100
AcDbLine
 10
9.056441411698397
 20
7.048491420150241
 30
0.0
 11
9.020513888186963
 21
7.064591611277729
 31
0.0
  0
LINE
  5
35E
330
350
100
AcDbEntity
  8
Symbol (ANSI)
100
AcDbLine
 10
9.038477649942679
 20
7.056541515713986
 30
0.0
 11
9.152251068845545
 21
7.310426525540356
 31
0.0
  0
LINE
  5
35F
330
350
100
AcDbEntity
  8
Symbol (ANSI)
100
AcDbLine
 10
9.152251068845545
 20
7.310426525540356
 30
0.0
 11
9.25067626569594
 21
7.310426525540356
 31
0.0
  0
MTEXT
  5
360
330
350
100
AcDbEntity
  8
Symbol (ANSI)
100
AcDbMText
 10
9.257020077211688
 20
7.250426526001929
 30
0.0
 40
0.1200000014830762
 41
0.0
 71
     7
 72
     1
  1
4
  7
Text Style29
 73
     1
 44
1.0
1001
ACAD
1000
MTEXTBEGIN
1070
    73
1070
     1
1070
    44
1040
1.0
1070
    74
1070
     0
1000
MTEXTEND
  0
ENDBLK
  5
352
330
350
100
AcDbEntity
  8
0
100
AcDbBlockEnd
  0
BLOCK
  5
363
330
362
100
AcDbEntity
  8
0
100
AcDbBlockBegin
  2
Leader Text8
 70
     0
 10
0.0
 20
0.0
 30
0.0
  3
Leader Text8
  1

  0
MTEXT
  5
365
330
362
100
AcDbEntity
  8
Symbol (ANSI)
100
AcDbMText
 10
7.101721351320462
 20
6.928097671526691
 30
0.0
 40
0.1200000014830762
 41
0.0
 71
     7
 72
     1
  1
3
  7
Text Style29
 73
     1
 44
1.0
1001
ACAD
1000
MTEXTBEGIN
1070
    73
1070
     1
1070
    44
1040
1.0
1070
    74
1070
     0
1000
MTEXTEND
  0
ENDBLK
  5
364
330
362
100
AcDbEntity
  8
0
100
AcDbBlockEnd
  0
BLOCK
  5
368
330
367
100
AcDbEntity
  8
0
100
AcDbBlockBegin
  2
Leader Text9
 70
     0
 10
0.0
 20
0.0
 30
0.0
  3
Leader Text9
  1

  0
LINE
  5
36A
330
367
100
AcDbEntity
  8
Symbol (ANSI)
100
AcDbLine
 10
7.562897372751947
 20
1.968431011713716
 30
0.0
 11
7.504633739689589
 21
2.047758613703273
 31
0.0
  0
POLYLINE
  5
36B
330
367
100
AcDbEntity
  8
Symbol (ANSI)
100
AcDb2dPolyline
 66
     1
 10
0.0
 20
0.0
 30
0.0
 70
   128
  0
VERTEX
  5
36C
330
36B
100
AcDbEntity
  8
Symbol (ANSI)
100
AcDbVertex
100
AcDb2dVertex
 10
7.578762685220072
 20
1.980083758436788
 30
0.0
  0
VERTEX
  5
36D
330
36B
100
AcDbEntity
  8
Symbol (ANSI)
100
AcDbVertex
100
AcDb2dVertex
 10
7.504633655698279
 20
2.04775859051802
 30
0.0
  0
VERTEX
  5
36F
330
36B
100
AcDbEntity
  8
Symbol (ANSI)
100
AcDbVertex
100
AcDb2dVertex
 10
7.547031612846794
 20
1.956778248464028
 30
0.0
  0
VERTEX
  5
370
330
36B
100
AcDbEntity
  8
Symbol (ANSI)
100
AcDbVertex
100
AcDb2dVertex
 10
7.578762685220072
 20
1.980083758436788
 30
0.0
  0
SEQEND
  5
36E
330
36B
100
AcDbEntity
  8
Symbol (ANSI)
  0
SOLID
  5
371
330
367
100
AcDbEntity
  8
Symbol (ANSI)
100
AcDbTrace
 10
7.578762685220072
 20
1.980083758436788
 30
0.0
 11
7.504633655698279
 21
2.04775859051802
 31
0.0
 12
7.547031612846794
 22
1.956778248464028
 32
0.0
 13
7.578762685220072
 23
1.980083758436788
 33
0.0
  0
LINE
  5
372
330
367
100
AcDbEntity
  8
Symbol (ANSI)
100
AcDbLine
 10
7.578762893149858
 20
1.980083738326187
 30
0.0
 11
7.504633739689589
 21
2.047758613703273
 31
0.0
  0
LINE
  5
373
330
367
100
AcDbEntity
  8
Symbol (ANSI)
100
AcDbLine
 10
7.504633739689589
 20
2.047758613703273
 30
0.0
 11
7.547031852354035
 21
1.956778285101244
 31
0.0
  0
LINE
  5
374
330
367
100
AcDbEntity
  8
Symbol (ANSI)
100
AcDbLine
 10
7.547031852354035
 20
1.956778285101244
 30
0.0
 11
7.578762893149858
 21
1.980083738326187
 31
0.0
  0
LINE
  5
375
330
367
100
AcDbEntity
  8
Symbol (ANSI)
100
AcDbLine
 10
7.562897372751947
 20
1.968431011713716
 30
0.0
 11
7.680687134536966
 21
1.808056883802292
 31
0.0
  0
LINE
  5
376
330
367
100
AcDbEntity
  8
Symbol (ANSI)
100
AcDbLine
 10
7.680687134536966
 20
1.808056883802292
 30
0.0
 11
7.779112331387359
 21
1.808056883802292
 31
0.0
  0
MTEXT
  5
377
330
367
100
AcDbEntity
  8
Symbol (ANSI)
100
AcDbMText
 10
7.789685350580273
 20
1.745917500163629
 30
0.0
 40
0.1200000014830762
 41
0.0
 71
     7
 72
     1
  1
C1
  7
Text Style29
 73
     1
 44
1.0
1001
ACAD
1000
MTEXTBEGIN
1070
    73
1070
     1
1070
    44
1040
1.0
1070
    74
1070
     0
1000
MTEXTEND
  0
ENDBLK
  5
369
330
367
100
AcDbEntity
  8
0
100
AcDbBlockEnd
  0
BLOCK
  5
37A
330
379
100
AcDbEntity
  8
0
100
AcDbBlockBegin
  2
Leader Text10
 70
     0
 10
0.0
 20
0.0
 30
0.0
  3
Leader Text10
  1

  0
LINE
  5
37C
330
379
100
AcDbEntity
  8
Symbol (ANSI)
100
AcDbLine
 10
9.09129946130634
 20
3.075993908223455
 30
0.0
 11
9.065886441095722
 21
2.980906065789138
 31
0.0
  0
POLYLINE
  5
37D
330
379
100
AcDbEntity
  8
Symbol (ANSI)
100
AcDb2dPolyline
 66
     1
 10
0.0
 20
0.0
 30
0.0
 70
   128
  0
VERTEX
  5
37E
330
37D
100
AcDbEntity
  8
Symbol (ANSI)
100
AcDbVertex
100
AcDb2dVertex
 10
9.072281995157556
 20
3.081076539407564
 30
0.0
  0
VERTEX
  5
37F
330
37D
100
AcDbEntity
  8
Symbol (ANSI)
100
AcDbVertex
100
AcDb2dVertex
 10
9.065886369840365
 20
2.980906005919448
 30
0.0
  0
VERTEX
  5
381
330
37D
100
AcDbEntity
  8
Symbol (ANSI)
100
AcDbVertex
100
AcDb2dVertex
 10
9.110317080039676
 20
3.070911272304264
 30
0.0
  0
VERTEX
  5
382
330
37D
100
AcDbEntity
  8
Symbol (ANSI)
100
AcDbVertex
100
AcDb2dVertex
 10
9.072281995157556
 20
3.081076539407564
 30
0.0
  0
SEQEND
  5
380
330
37D
100
AcDbEntity
  8
Symbol (ANSI)
  0
SOLID
  5
383
330
379
100
AcDbEntity
  8
Symbol (ANSI)
100
AcDbTrace
 10
9.072281995157556
 20
3.081076539407564
 30
0.0
 11
9.065886369840365
 21
2.980906005919448
 31
0.0
 12
9.110317080039676
 22
3.070911272304264
 32
0.0
 13
9.072281995157556
 23
3.081076539407564
 33
0.0
  0
LINE
  5
384
330
379
100
AcDbEntity
  8
Symbol (ANSI)
100
AcDbLine
 10
9.072281892819477
 20
3.081076512265578
 30
0.0
 11
9.065886441095722
 21
2.980906065789138
 31
0.0
  0
LINE
  5
385
330
379
100
AcDbEntity
  8
Symbol (ANSI)
100
AcDbLine
 10
9.065886441095722
 20
2.980906065789138
 30
0.0
 11
9.110317029793202
 21
3.070911304181331
 31
0.0
  0
LINE
  5
386
330
379
100
AcDbEntity
  8
Symbol (ANSI)
100
AcDbLine
 10
9.110317029793202
 20
3.070911304181331
 30
0.0
 11
9.072281892819477
 21
3.081076512265578
 31
0.0
  0
LINE
  5
387
330
379
100
AcDbEntity
  8
Symbol (ANSI)
100
AcDbLine
 10
9.09129946130634
 20
3.075993908223455
 30
0.0
 11
9.205568602697306
 21
3.503554505965764
 31
0.0
  0
LINE
  5
388
330
379
100
AcDbEntity
  8
Symbol (ANSI)
100
AcDbLine
 10
9.205568602697306
 20
3.503554505965764
 30
0.0
 11
9.303993799547701
 21
3.503554505965764
 31
0.0
  0
MTEXT
  5
389
330
379
100
AcDbEntity
  8
Symbol (ANSI)
100
AcDbMText
 10
9.314566818740614
 20
3.441220632863444
 30
0.0
 40
0.1200000014830762
 41
0.0
 71
     7
 72
     1
  1
C2
  7
Text Style29
 73
     1
 44
1.0
1001
ACAD
1000
MTEXTBEGIN
1070
    73
1070
     1
1070
    44
1040
1.0
1070
    74
1070
     0
1000
MTEXTEND
  0
ENDBLK
  5
37B
330
379
100
AcDbEntity
  8
0
100
AcDbBlockEnd
  0
BLOCK
  5
38C
330
38B
100
AcDbEntity
  8
0
100
AcDbBlockBegin
  2
Leader Text11
 70
     0
 10
0.0
 20
0.0
 30
0.0
  3
Leader Text11
  1

  0
LINE
  5
38E
330
38B
100
AcDbEntity
  8
Symbol (ANSI)
100
AcDbLine
 10
6.945969945709149
 20
1.543556512868839
 30
0.0
 11
6.907822101704972
 21
1.634288323017606
 31
0.0
  0
POLYLINE
  5
38F
330
38B
100
AcDbEntity
  8
Symbol (ANSI)
100
AcDb2dPolyline
 66
     1
 10
0.0
 20
0.0
 30
0.0
 70
   128
  0
VERTEX
  5
390
330
38F
100
AcDbEntity
  8
Symbol (ANSI)
100
AcDbVertex
100
AcDb2dVertex
 10
6.964116584597609
 20
1.551186099765807
 30
0.0
  0
VERTEX
  5
391
330
38F
100
AcDbEntity
  8
Symbol (ANSI)
100
AcDbVertex
100
AcDb2dVertex
 10
6.907822015717273
 20
1.634288397360974
 30
0.0
  0
VERTEX
  5
393
330
38F
100
AcDbEntity
  8
Symbol (ANSI)
100
AcDbVertex
100
AcDb2dVertex
 10
6.927823644923412
 20
1.535926935240978
 30
0.0
  0
VERTEX
  5
394
330
38F
100
AcDbEntity
  8
Symbol (ANSI)
100
AcDbVertex
100
AcDb2dVertex
 10
6.964116584597609
 20
1.551186099765807
 30
0.0
  0
SEQEND
  5
392
330
38F
100
AcDbEntity
  8
Symbol (ANSI)
  0
SOLID
  5
395
330
38B
100
AcDbEntity
  8
Symbol (ANSI)
100
AcDbTrace
 10
6.964116584597609
 20
1.551186099765807
 30
0.0
 11
6.907822015717273
 21
1.634288397360974
 31
0.0
 12
6.927823644923412
 22
1.535926935240978
 32
0.0
 13
6.964116584597609
 23
1.551186099765807
 33
0.0
  0
LINE
  5
396
330
38B
100
AcDbEntity
  8
Symbol (ANSI)
100
AcDbLine
 10
6.964116307738902
 20
1.551186081669674
 30
0.0
 11
6.907822101704972
 21
1.634288323017606
 31
0.0
  0
LINE
  5
397
330
38B
100
AcDbEntity
  8
Symbol (ANSI)
100
AcDbLine
 10
6.907822101704972
 20
1.634288323017606
 30
0.0
 11
6.927823583679396
 21
1.535926944068004
 31
0.0
  0
LINE
  5
398
330
38B
100
AcDbEntity
  8
Symbol (ANSI)
100
AcDbLine
 10
6.927823583679396
 20
1.535926944068004
 30
0.0
 11
6.964116307738902
 21
1.551186081669674
 31
0.0
  0
LINE
  5
399
330
38B
100
AcDbEntity
  8
Symbol (ANSI)
100
AcDbLine
 10
6.945969945709149
 20
1.543556512868839
 30
0.0
 11
7.126184782478661
 21
1.114928925056218
 31
0.0
  0
LINE
  5
39A
330
38B
100
AcDbEntity
  8
Symbol (ANSI)
100
AcDbLine
 10
7.126184782478661
 20
1.114928925056218
 30
0.0
 11
7.224609979329055
 21
1.114928925056218
 31
0.0
  0
MTEXT
  5
39B
330
38B
100
AcDbEntity
  8
Symbol (ANSI)
100
AcDbMText
 10
7.248639568403858
 20
1.054734436054133
 30
0.0
 40
0.1200000014830762
 41
0.0
 71
     7
 72
     1
  1
D1
  7
Text Style29
 73
     1
 44
1.0
1001
ACAD
1000
MTEXTBEGIN
1070
    73
1070
     1
1070
    44
1040
1.0
1070
    74
1070
     0
1000
MTEXTEND
  0
ENDBLK
  5
38D
330
38B
100
AcDbEntity
  8
0
100
AcDbBlockEnd
  0
BLOCK
  5
39E
330
39D
100
AcDbEntity
  8
0
100
AcDbBlockBegin
  2
Leader Text12
 70
     0
 10
0.0
 20
0.0
 30
0.0
  3
Leader Text12
  1

  0
LINE
  5
3A0
330
39D
100
AcDbEntity
  8
Symbol (ANSI)
100
AcDbLine
 10
9.10909704727617
 20
1.5977317791236
 30
0.0
 11
9.070242997279116
 21
1.688163422777054
 31
0.0
  0
POLYLINE
  5
3A1
330
39D
100
AcDbEntity
  8
Symbol (ANSI)
100
AcDb2dPolyline
 66
     1
 10
0.0
 20
0.0
 30
0.0
 70
   128
  0
VERTEX
  5
3A2
330
3A1
100
AcDbEntity
  8
Symbol (ANSI)
100
AcDbVertex
100
AcDb2dVertex
 10
9.127183598796213
 20
1.605502639229841
 30
0.0
  0
VERTEX
  5
3A3
330
3A1
100
AcDbEntity
  8
Symbol (ANSI)
100
AcDbVertex
100
AcDb2dVertex
 10
9.07024323470949
 20
1.688163486991341
 30
0.0
  0
VERTEX
  5
3A5
330
3A1
100
AcDbEntity
  8
Symbol (ANSI)
100
AcDbVertex
100
AcDb2dVertex
 10
9.091010807067389
 20
1.589960939302219
 30
0.0
  0
VERTEX
  5
3A6
330
3A1
100
AcDbEntity
  8
Symbol (ANSI)
100
AcDbVertex
100
AcDb2dVertex
 10
9.127183598796213
 20
1.605502639229841
 30
0.0
  0
SEQEND
  5
3A4
330
3A1
100
AcDbEntity
  8
Symbol (ANSI)
  0
SOLID
  5
3A7
330
39D
100
AcDbEntity
  8
Symbol (ANSI)
100
AcDbTrace
 10
9.127183598796213
 20
1.605502639229841
 30
0.0
 11
9.07024323470949
 21
1.688163486991341
 31
0.0
 12
9.091010807067389
 22
1.589960939302219
 32
0.0
 13
9.127183598796213
 23
1.605502639229841
 33
0.0
  0
LINE
  5
3A8
330
39D
100
AcDbEntity
  8
Symbol (ANSI)
100
AcDbLine
 10
9.127183376006861
 20
1.605502589123011
 30
0.0
 11
9.070242997279116
 21
1.688163422777054
 31
0.0
  0
LINE
  5
3A9
330
39D
100
AcDbEntity
  8
Symbol (ANSI)
100
AcDbLine
 10
9.070242997279116
 20
1.688163422777054
 30
0.0
 11
9.091010718545479
 21
1.58996096912419
 31
0.0
  0
LINE
  5
3AA
330
39D
100
AcDbEntity
  8
Symbol (ANSI)
100
AcDbLine
 10
9.091010718545479
 20
1.58996096912419
 30
0.0
 11
9.127183376006861
 21
1.605502589123011
 31
0.0
  0
LINE
  5
3AB
330
39D
100
AcDbEntity
  8
Symbol (ANSI)
100
AcDbLine
 10
9.10909704727617
 20
1.5977317791236
 30
0.0
 11
9.29143634367956
 21
1.173342499817496
 31
0.0
  0
LINE
  5
3AC
330
39D
100
AcDbEntity
  8
Symbol (ANSI)
100
AcDbLine
 10
9.29143634367956
 20
1.173342499817496
 30
0.0
 11
9.389861540529954
 21
1.173342499817496
 31
0.0
  0
MTEXT
  5
3AD
330
39D
100
AcDbEntity
  8
Symbol (ANSI)
100
AcDbMText
 10
9.413891129604756
 20
1.113148010815412
 30
0.0
 40
0.1200000014830762
 41
0.0
 71
     7
 72
     1
  1
B1
  7
Text Style29
 73
     1
 44
1.0
1001
ACAD
1000
MTEXTBEGIN
1070
    73
1070
     1
1070
    44
1040
1.0
1070
    74
1070
     0
1000
MTEXTEND
  0
ENDBLK
  5
39F
330
39D
100
AcDbEntity
  8
0
100
AcDbBlockEnd
  0
ENDSEC
  0
SECTION
  2
ENTITIES
  0
INSERT
  5
FC
330
37
100
AcDbEntity
  8
0
100
AcDbBlockReference
  2
Borders Default Border
 10
0.0
 20
0.0
 30
0.0
 41
0.25
 42
0.25
 43
0.25
  0
LINE
  5
FD
330
37
100
AcDbEntity
  8
Visible (ANSI)
100
AcDbLine
 10
2.42341217486316
 20
0.7998201699281739
 30
0.0
 11
2.433712174863171
 21
0.7998201699281739
 31
0.0
  0
LINE
  5
FE
330
37
100
AcDbEntity
  8
Visible (ANSI)
100
AcDbLine
 10
2.433712174863171
 20
0.7998201699281739
 30
0.0
 11
2.493712174863244
 21
0.7998201699281739
 31
0.0
  0
LINE
  5
FF
330
37
100
AcDbEntity
  8
Visible (ANSI)
100
AcDbLine
 10
1.593712184862143
 20
0.3498201699276253
 30
0.0
 11
2.493712174863244
 21
0.3498201699276253
 31
0.0
  0
LINE
  5
100
330
37
100
AcDbEntity
  8
Visible (ANSI)
100
AcDbLine
 10
2.285212174862987
 20
0.7998201699281739
 30
0.0
 11
1.593712184862143
 21
0.7998201699281739
 31
0.0
  0
LINE
  5
101
330
37
100
AcDbEntity
  8
Visible (ANSI)
100
AcDbLine
 10
2.285212174862987
 20
0.7813201699281511
 30
0.0
 11
2.285212174862987
 21
0.7998201699281739
 31
0.0
  0
LINE
  5
102
330
37
100
AcDbEntity
  8
Visible (ANSI)
100
AcDbLine
 10
1.593712184862143
 20
0.7998201699281739
 30
0.0
 11
1.593712184862143
 21
0.3498201699276253
 31
0.0
  0
LINE
  5
103
330
37
100
AcDbEntity
  8
Visible (ANSI)
100
AcDbLine
 10
2.493712174863244
 20
0.3498201699276253
 30
0.0
 11
2.493712174863244
 21
0.7778201699281451
 31
0.0
  0
LINE
  5
104
330
37
100
AcDbEntity
  8
Visible (ANSI)
100
AcDbLine
 10
2.493712174863244
 20
0.7778201699281451
 30
0.0
 11
2.433712174863171
 21
0.7778201699281451
 31
0.0
  0
LINE
  5
105
330
37
100
AcDbEntity
  8
Visible (ANSI)
100
AcDbLine
 10
2.433712174863171
 20
0.7778201699281451
 30
0.0
 11
2.433712174863171
 21
0.6998201699280516
 31
0.0
  0
ARC
  5
106
330
37
100
AcDbEntity
  8
Visible (ANSI)
100
AcDbCircle
 10
2.384462174863108
 20
0.6998201699280489
 30
0.0
 40
0.0492500000000594
100
AcDbArc
 50
180.0
 51
0.0
  0
LINE
  5
107
330
37
100
AcDbEntity
  8
Visible (ANSI)
100
AcDbLine
 10
2.335212174863049
 20
0.6998201699280516
 30
0.0
 11
2.335212174863049
 21
0.7998201699281739
 31
0.0
  0
LINE
  5
108
330
37
100
AcDbEntity
  8
Visible (ANSI)
100
AcDbLine
 10
2.335212174863049
 20
0.7998201699281739
 30
0.0
 11
2.303712174863012
 21
0.7998201699281739
 31
0.0
  0
LINE
  5
109
330
37
100
AcDbEntity
  8
Visible (ANSI)
100
AcDbLine
 10
2.303712174863012
 20
0.7998201699281739
 30
0.0
 11
2.303712174863012
 21
0.7813201699281511
 31
0.0
  0
LINE
  5
10A
330
37
100
AcDbEntity
  8
Visible (ANSI)
100
AcDbLine
 10
2.303712174863012
 20
0.7813201699281511
 30
0.0
 11
2.285212174862987
 21
0.7813201699281511
 31
0.0
  0
LINE
  5
10B
330
37
100
AcDbEntity
  8
Visible (ANSI)
100
AcDbLine
 10
2.493712174863244
 20
0.7998201699281739
 30
0.0
 11
2.493712174863244
 21
0.7778201699281471
 31
0.0
  0
LINE
  5
10C
330
37
100
AcDbEntity
  8
Visible (ANSI)
100
AcDbLine
 10
2.335212174863049
 20
0.7998201699281739
 30
0.0
 11
2.353712174863072
 21
0.7998201699281739
 31
0.0
  0
LINE
  5
10D
330
37
100
AcDbEntity
  8
Visible (ANSI)
100
AcDbLine
 10
2.42341217486316
 20
0.7998201699281739
 30
0.0
 11
2.353712174863072
 21
0.7998201699281739
 31
0.0
  0
LINE
  5
10E
330
37
100
AcDbEntity
  8
Visible (ANSI)
100
AcDbLine
 10
2.285212174862987
 20
0.7998201699281739
 30
0.0
 11
2.30371217486301
 21
0.7998201699281739
 31
0.0
  0
LINE
  5
10F
330
37
100
AcDbEntity
  8
Visible (ANSI)
100
AcDbLine
 10
2.42341217486316
 20
0.7913201699281642
 30
0.0
 11
2.42341217486316
 21
0.7998201699281739
 31
0.0
  0
LINE
  5
110
330
37
100
AcDbEntity
  8
Visible (ANSI)
100
AcDbLine
 10
2.353712174863072
 20
0.7998201699281739
 30
0.0
 11
2.353712174863072
 21
0.6998201699280516
 31
0.0
  0
ARC
  5
111
330
37
100
AcDbEntity
  8
Visible (ANSI)
100
AcDbCircle
 10
2.384462174863108
 20
0.6998201699280516
 30
0.0
 40
0.0307500000000367
100
AcDbArc
 50
180.0
 51
0.0
  0
LINE
  5
112
330
37
100
AcDbEntity
  8
Visible (ANSI)
100
AcDbLine
 10
2.415212174863145
 20
0.6998201699280516
 30
0.0
 11
2.415212174863145
 21
0.7878201699281582
 31
0.0
  0
ARC
  5
113
330
37
100
AcDbEntity
  8
Visible (ANSI)
100
AcDbCircle
 10
2.418712174863149
 20
0.787820169928161
 30
0.0
 40
0.0035000000000004
100
AcDbArc
 50
89.99999999995422
 51
180.0
  0
LINE
  5
114
330
37
100
AcDbEntity
  8
Visible (ANSI)
100
AcDbLine
 10
2.418712174863151
 20
0.7913201699281642
 30
0.0
 11
2.42341217486316
 21
0.7913201699281642
 31
0.0
  0
LINE
  5
115
330
37
100
AcDbEntity
  8
Visible (ANSI)
100
AcDbLine
 10
2.415212174863145
 20
0.7813201699281511
 30
0.0
 11
2.433712174863171
 21
0.7813201699281511
 31
0.0
  0
LINE
  5
116
330
37
100
AcDbEntity
  8
Visible (ANSI)
100
AcDbLine
 10
2.433712174863171
 20
0.7778201699281479
 30
0.0
 11
2.433712174863171
 21
0.7998201699281739
 31
0.0
  0
CIRCLE
  5
117
330
37
100
AcDbEntity
  8
Visible (ANSI)
100
AcDbCircle
 10
1.857341435662466
 20
0.7008252207280538
 30
0.0
 40
0.0445
  0
CIRCLE
  5
118
330
37
100
AcDbEntity
  8
Visible (ANSI)
100
AcDbCircle
 10
2.055331334062706
 20
0.7008252207280538
 30
0.0
 40
0.0445
  0
CIRCLE
  5
119
330
37
100
AcDbEntity
  8
Visible (ANSI)
100
AcDbCircle
 10
2.055331334062706
 20
0.7008252207280538
 30
0.0
 40
0.0475000000000011
  0
CIRCLE
  5
11A
330
37
100
AcDbEntity
  8
Visible (ANSI)
100
AcDbCircle
 10
1.857341435662466
 20
0.7008252207280538
 30
0.0
 40
0.0475000000000011
  0
CIRCLE
  5
11B
330
37
100
AcDbEntity
  8
Visible (ANSI)
100
AcDbCircle
 10
2.254336384862953
 20
0.4528201699277515
 30
0.0
 40
0.0460000000000537
  0
CIRCLE
  5
11C
330
37
100
AcDbEntity
  8
Visible (ANSI)
100
AcDbCircle
 10
1.708351584862283
 20
0.4528201699277515
 30
0.0
 40
0.0510000000000011
  0
CIRCLE
  5
11D
330
37
100
AcDbEntity
  8
Visible (ANSI)
100
AcDbCircle
 10
1.848336384862456
 20
0.5498201699278697
 30
0.0
 40
0.0500000000000011
  0
CIRCLE
  5
11E
330
37
100
AcDbEntity
  8
Visible (ANSI)
100
AcDbCircle
 10
2.254336384862953
 20
0.6998201699280516
 30
0.0
 40
0.0500000000000011
  0
CIRCLE
  5
11F
330
37
100
AcDbEntity
  8
Visible (ANSI)
100
AcDbCircle
 10
2.254336384862953
 20
0.6998201699280516
 30
0.0
 40
0.047
  0
CIRCLE
  5
120
330
37
100
AcDbEntity
  8
Visible (ANSI)
100
AcDbCircle
 10
2.254336384862953
 20
0.4528201699277515
 30
0.0
 40
0.0430000000000526
  0
CIRCLE
  5
121
330
37
100
AcDbEntity
  8
Visible (ANSI)
100
AcDbCircle
 10
1.848336384862456
 20
0.5498201699278697
 30
0.0
 40
0.047
  0
CIRCLE
  5
122
330
37
100
AcDbEntity
  8
Visible (ANSI)
100
AcDbCircle
 10
1.708351584862283
 20
0.4528201699277515
 30
0.0
 40
0.048
  0
CIRCLE
  5
123
330
37
100
AcDbEntity
  8
Hidden Narrow (ANSI)
 48
1.045677661895751
100
AcDbCircle
 10
1.708351584862283
 20
0.4528201699277515
 30
0.0
 40
0.043
  0
CIRCLE
  5
124
330
37
100
AcDbEntity
  8
Hidden Narrow (ANSI)
 48
1.066956043243408
100
AcDbCircle
 10
2.254336384862953
 20
0.4528201699277515
 30
0.0
 40
0.0526500000000526
  0
INSERT
  5
14B
330
37
100
AcDbEntity
  8
Dimension (ANSI)
100
AcDbBlockReference
  2
Origin Indicator Symbol1
 10
0.0
 20
0.0
 30
0.0
 41
0.25
 42
0.25
 43
0.25
  0
CIRCLE
  5
14C
330
37
100
AcDbEntity
  8
Visible (ANSI)
100
AcDbCircle
 10
2.154331284862898
 20
1.620790399165809
 30
0.0
 40
0.0445
  0
CIRCLE
  5
14D
330
37
100
AcDbEntity
  8
Visible (ANSI)
100
AcDbCircle
 10
2.154331284862898
 20
1.62079039916581
 30
0.0
 40
0.0475000000000011
  0
CIRCLE
  5
14E
330
37
100
AcDbEntity
  8
Visible (ANSI)
100
AcDbCircle
 10
2.230336384862988
 20
1.698790399165905
 30
0.0
 40
0.0500000000000011
  0
CIRCLE
  5
14F
330
37
100
AcDbEntity
  8
Visible (ANSI)
100
AcDbCircle
 10
2.230336384862988
 20
1.698790399165904
 30
0.0
 40
0.047
  0
CIRCLE
  5
150
330
37
100
AcDbEntity
  8
Visible (ANSI)
100
AcDbCircle
 10
2.154331334062894
 20
1.429785348365575
 30
0.0
 40
0.0445
  0
CIRCLE
  5
151
330
37
100
AcDbEntity
  8
Visible (ANSI)
100
AcDbCircle
 10
1.956341435662654
 20
1.429785348365575
 30
0.0
 40
0.0445
  0
CIRCLE
  5
152
330
37
100
AcDbEntity
  8
Visible (ANSI)
100
AcDbCircle
 10
2.154331334062894
 20
1.429785348365576
 30
0.0
 40
0.0475000000000011
  0
CIRCLE
  5
153
330
37
100
AcDbEntity
  8
Visible (ANSI)
100
AcDbCircle
 10
1.70835158486235
 20
1.429785349165576
 30
0.0
 40
0.0475000000000011
  0
CIRCLE
  5
154
330
37
100
AcDbEntity
  8
Visible (ANSI)
100
AcDbCircle
 10
1.73835158486239
 20
1.698790399165905
 30
0.0
 40
0.0500000000000011
  0
CIRCLE
  5
155
330
37
100
AcDbEntity
  8
Visible (ANSI)
100
AcDbCircle
 10
1.956341435662654
 20
1.429785348365576
 30
0.0
 40
0.0475000000000011
  0
CIRCLE
  5
156
330
37
100
AcDbEntity
  8
Visible (ANSI)
100
AcDbCircle
 10
1.70835158486235
 20
1.429785349165575
 30
0.0
 40
0.0445
  0
CIRCLE
  5
157
330
37
100
AcDbEntity
  8
Visible (ANSI)
100
AcDbCircle
 10
1.73835158486239
 20
1.698790399165904
 30
0.0
 40
0.047
  0
LINE
  5
158
330
37
100
AcDbEntity
  8
Visible (ANSI)
100
AcDbLine
 10
1.965585384862667
 20
1.780790399166005
 30
0.0
 11
1.965585384862667
 21
1.690790399165281
 31
0.0
  0
LINE
  5
159
330
37
100
AcDbEntity
  8
Visible (ANSI)
100
AcDbLine
 10
1.965585384862667
 20
1.690790399165281
 30
0.0
 11
1.965586384862666
 21
1.665790399165865
 31
0.0
  0
LINE
  5
15A
330
37
100
AcDbEntity
  8
Visible (ANSI)
100
AcDbLine
 10
1.965586384862666
 20
1.665790399165865
 30
0.0
 11
1.965586384862666
 21
1.565790399165742
 31
0.0
  0
ARC
  5
15B
330
37
100
AcDbEntity
  8
Visible (ANSI)
100
AcDbCircle
 10
1.996336384862702
 20
1.56579039916574
 30
0.0
 40
0.0307500000000367
100
AcDbArc
 50
180.0
 51
270.0
  0
LINE
  5
15C
330
37
100
AcDbEntity
  8
Visible (ANSI)
100
AcDbLine
 10
1.996336384862702
 20
1.535040399165705
 30
0.0
 11
2.201760633558525
 21
1.535040399165705
 31
0.0
  0
ARC
  5
15D
330
37
100
AcDbEntity
  8
Visible (ANSI)
100
AcDbCircle
 10
2.20633638486296
 20
1.5272903991657
 30
0.0
 40
0.0090000000000064
100
AcDbArc
 50
90.0
 51
120.5584317859418
  0
LINE
  5
15E
330
37
100
AcDbEntity
  8
Visible (ANSI)
100
AcDbLine
 10
2.20633638486296
 20
1.536290399165706
 30
0.0
 11
2.214111435063976
 21
1.536290399165706
 31
0.0
  0
ARC
  5
15F
330
37
100
AcDbEntity
  8
Visible (ANSI)
100
AcDbCircle
 10
2.220336384862981
 20
1.529790399165692
 30
0.0
 40
0.009000000000018
100
AcDbArc
 50
90.00000000001781
 51
133.7617426926662
  0
LINE
  5
160
330
37
100
AcDbEntity
  8
Visible (ANSI)
100
AcDbLine
 10
2.220336384862978
 20
1.538790399165709
 30
0.0
 11
2.227212481438598
 21
1.538790399165709
 31
0.0
  0
ARC
  5
161
330
37
100
AcDbEntity
  8
Visible (ANSI)
100
AcDbCircle
 10
2.234336384862996
 20
1.5332903991657
 30
0.0
 40
0.0090000000000146
100
AcDbArc
 50
90.00000000001781
 51
142.3301130356689
  0
LINE
  5
162
330
37
100
AcDbEntity
  8
Visible (ANSI)
100
AcDbLine
 10
2.234336384862994
 20
1.542290399165714
 30
0.0
 11
2.24167953061351
 21
1.542290399165714
 31
0.0
  0
ARC
  5
163
330
37
100
AcDbEntity
  8
Visible (ANSI)
100
AcDbCircle
 10
2.247336384863014
 20
1.535290399165693
 30
0.0
 40
0.0090000000000226
100
AcDbArc
 50
90.00000000001781
 51
128.9424412689585
  0
LINE
  5
164
330
37
100
AcDbEntity
  8
Visible (ANSI)
100
AcDbLine
 10
2.247336384863011
 20
1.544290399165716
 30
0.0
 11
2.254462174863017
 21
1.544290399165716
 31
0.0
  0
ARC
  5
165
330
37
100
AcDbEntity
  8
Visible (ANSI)
100
AcDbCircle
 10
2.254462174863023
 20
1.575040399165748
 30
0.0
 40
0.0307500000000324
100
AcDbArc
 50
269.9999999999895
 51
0.0
  0
LINE
  5
166
330
37
100
AcDbEntity
  8
Visible (ANSI)
100
AcDbLine
 10
2.285212174863054
 20
1.575040399165754
 30
0.0
 11
2.285212174863054
 21
1.625790399165816
 31
0.0
  0
ARC
  5
167
330
37
100
AcDbEntity
  8
Visible (ANSI)
100
AcDbCircle
 10
2.359462174863146
 20
1.625790399165814
 30
0.0
 40
0.0742500000000921
100
AcDbArc
 50
0.0
 51
180.0
  0
LINE
  5
168
330
37
100
AcDbEntity
  8
Visible (ANSI)
100
AcDbLine
 10
2.433712174863238
 20
1.625790399165816
 30
0.0
 11
2.433712174863238
 21
1.352790399165482
 31
0.0
  0
LINE
  5
169
330
37
100
AcDbEntity
  8
Visible (ANSI)
100
AcDbLine
 10
2.433712174863238
 20
1.352790399165482
 30
0.0
 11
2.493712174863311
 21
1.352790399165482
 31
0.0
  0
LINE
  5
16A
330
37
100
AcDbEntity
  8
Visible (ANSI)
100
AcDbLine
 10
2.493712174863311
 20
1.352790399165482
 30
0.0
 11
2.493712174863311
 21
1.780790399166005
 31
0.0
  0
LINE
  5
16B
330
37
100
AcDbEntity
  8
Visible (ANSI)
100
AcDbLine
 10
1.965585384862667
 20
1.780790399166005
 30
0.0
 11
2.493712174863311
 21
1.780790399166005
 31
0.0
  0
LINE
  5
16C
330
37
100
AcDbEntity
  8
Visible (ANSI)
100
AcDbLine
 10
1.947087384862645
 20
1.690790399165281
 30
0.0
 11
1.947087384862645
 21
1.780790399166005
 31
0.0
  0
LINE
  5
16D
330
37
100
AcDbEntity
  8
Visible (ANSI)
100
AcDbLine
 10
1.59371218486221
 20
1.780790399166005
 30
0.0
 11
1.947087384862645
 21
1.780790399166005
 31
0.0
  0
LINE
  5
16E
330
37
100
AcDbEntity
  8
Visible (ANSI)
100
AcDbLine
 10
1.59371218486221
 20
1.330790399165455
 30
0.0
 11
1.59371218486221
 21
1.780790399166005
 31
0.0
  0
LINE
  5
16F
330
37
100
AcDbEntity
  8
Visible (ANSI)
100
AcDbLine
 10
2.285212174863054
 20
1.330790399165455
 30
0.0
 11
1.59371218486221
 21
1.330790399165455
 31
0.0
  0
LINE
  5
170
330
37
100
AcDbEntity
  8
Visible (ANSI)
100
AcDbLine
 10
2.285212174863054
 20
1.330790399165455
 30
0.0
 11
2.285212174863054
 21
1.476540399165633
 31
0.0
  0
ARC
  5
171
330
37
100
AcDbEntity
  8
Visible (ANSI)
100
AcDbCircle
 10
2.254462174863023
 20
1.476540399165638
 30
0.0
 40
0.0307500000000311
100
AcDbArc
 50
0.0
 51
90.00000000001046
  0
LINE
  5
172
330
37
100
AcDbEntity
  8
Visible (ANSI)
100
AcDbLine
 10
2.254462174863017
 20
1.507290399165671
 30
0.0
 11
2.247336384863011
 21
1.507290399165671
 31
0.0
  0
ARC
  5
173
330
37
100
AcDbEntity
  8
Visible (ANSI)
100
AcDbCircle
 10
2.247336384863014
 20
1.516290399165694
 30
0.0
 40
0.009000000000023
100
AcDbArc
 50
231.0575587310412
 51
269.9999999999822
  0
LINE
  5
174
330
37
100
AcDbEntity
  8
Visible (ANSI)
100
AcDbLine
 10
2.24167953061351
 20
1.509290399165673
 30
0.0
 11
2.234336384862994
 21
1.509290399165673
 31
0.0
  0
ARC
  5
175
330
37
100
AcDbEntity
  8
Visible (ANSI)
100
AcDbCircle
 10
2.234336384862996
 20
1.518290399165687
 30
0.0
 40
0.0090000000000136
100
AcDbArc
 50
217.6698869643302
 51
269.9999999999822
  0
LINE
  5
176
330
37
100
AcDbEntity
  8
Visible (ANSI)
100
AcDbLine
 10
2.227212481438598
 20
1.512790399165678
 30
0.0
 11
2.220336384862978
 21
1.512790399165678
 31
0.0
  0
ARC
  5
177
330
37
100
AcDbEntity
  8
Visible (ANSI)
100
AcDbCircle
 10
2.220336384862981
 20
1.521790399165695
 30
0.0
 40
0.0090000000000173
100
AcDbArc
 50
226.2382573073331
 51
269.9999999999822
  0
LINE
  5
178
330
37
100
AcDbEntity
  8
Visible (ANSI)
100
AcDbLine
 10
2.214111435063976
 20
1.515290399165681
 30
0.0
 11
2.20633638486296
 21
1.515290399165681
 31
0.0
  0
ARC
  5
179
330
37
100
AcDbEntity
  8
Visible (ANSI)
100
AcDbCircle
 10
2.20633638486296
 20
1.524290399165687
 30
0.0
 40
0.0090000000000059
100
AcDbArc
 50
239.4415682140559
 51
270.0
  0
LINE
  5
17A
330
37
100
AcDbEntity
  8
Visible (ANSI)
100
AcDbLine
 10
2.201760633558525
 20
1.516540399165682
 30
0.0
 11
1.996336384862702
 21
1.516540399165682
 31
0.0
  0
ARC
  5
17B
330
37
100
AcDbEntity
  8
Visible (ANSI)
100
AcDbCircle
 10
1.9963363848627
 20
1.565790399165738
 30
0.0
 40
0.0492500000000559
100
AcDbArc
 50
180.0
 51
270.0000000000033
  0
LINE
  5
17C
330
37
100
AcDbEntity
  8
Visible (ANSI)
100
AcDbLine
 10
1.947086384862643
 20
1.565790399165742
 30
0.0
 11
1.947086384862643
 21
1.665790399165865
 31
0.0
  0
LINE
  5
17D
330
37
100
AcDbEntity
  8
Visible (ANSI)
100
AcDbLine
 10
1.947086384862643
 20
1.665790399165865
 30
0.0
 11
1.947087384862645
 21
1.690790399165281
 31
0.0
  0
LINE
  5
17E
330
37
100
AcDbEntity
  8
Visible (ANSI)
100
AcDbLine
 10
1.947087384862645
 20
1.780790399166
 30
0.0
 11
1.965585384862667
 21
1.780790399166
 31
0.0
  0
LINE
  5
17F
330
37
100
AcDbEntity
  8
Visible (ANSI)
100
AcDbLine
 10
2.493712174863311
 20
1.330790399165449
 30
0.0
 11
2.433712174863238
 21
1.330790399165449
 31
0.0
  0
LINE
  5
180
330
37
100
AcDbEntity
  8
Visible (ANSI)
100
AcDbLine
 10
2.433712174863235
 20
1.330790399165425
 30
0.0
 11
2.423412174863227
 21
1.330790399165417
 31
0.0
  0
LINE
  5
181
330
37
100
AcDbEntity
  8
Visible (ANSI)
100
AcDbLine
 10
2.353712174863139
 20
1.330790399165414
 30
0.0
 11
2.335212174863115
 21
1.330790399165425
 31
0.0
  0
LINE
  5
182
330
37
100
AcDbEntity
  8
Visible (ANSI)
100
AcDbLine
 10
2.335212174863116
 20
1.330790399165455
 30
0.0
 11
2.303712174863079
 21
1.330790399165455
 31
0.0
  0
LINE
  5
183
330
37
100
AcDbEntity
  8
Visible (ANSI)
100
AcDbLine
 10
2.303712174863079
 20
1.33079039916545
 30
0.0
 11
2.285212174863054
 21
1.33079039916545
 31
0.0
  0
LINE
  5
184
330
37
100
AcDbEntity
  8
Visible (ANSI)
100
AcDbLine
 10
2.493712174863311
 20
1.352790399165482
 30
0.0
 11
2.493712174863311
 21
1.330790399165449
 31
0.0
  0
LINE
  5
185
330
37
100
AcDbEntity
  8
Visible (ANSI)
100
AcDbLine
 10
2.303712174863079
 20
1.476540399165633
 30
0.0
 11
2.303712174863079
 21
1.330790399165455
 31
0.0
  0
LINE
  5
186
330
37
100
AcDbEntity
  8
Visible (ANSI)
100
AcDbLine
 10
2.335212174863116
 20
1.330790399165455
 30
0.0
 11
2.335212174863116
 21
1.349290399165478
 31
0.0
  0
LINE
  5
187
330
37
100
AcDbEntity
  8
Visible (ANSI)
100
AcDbLine
 10
2.335212174863116
 20
1.349290399165478
 30
0.0
 11
2.353712174863139
 21
1.349290399165478
 31
0.0
  0
LINE
  5
188
330
37
100
AcDbEntity
  8
Visible (ANSI)
100
AcDbLine
 10
2.353712174863139
 20
1.349290399165478
 30
0.0
 11
2.353712174863139
 21
1.330790399165455
 31
0.0
  0
LINE
  5
189
330
37
100
AcDbEntity
  8
Visible (ANSI)
100
AcDbLine
 10
2.423412174863227
 20
1.330790399165455
 30
0.0
 11
2.353712174863139
 21
1.330790399165455
 31
0.0
  0
LINE
  5
18A
330
37
100
AcDbEntity
  8
Visible (ANSI)
100
AcDbLine
 10
2.423412174863227
 20
1.330790399165455
 30
0.0
 11
2.423412174863227
 21
1.339290399165466
 31
0.0
  0
LINE
  5
18B
330
37
100
AcDbEntity
  8
Visible (ANSI)
100
AcDbLine
 10
2.423412174863227
 20
1.339290399165466
 30
0.0
 11
2.418712174863218
 21
1.339290399165466
 31
0.0
  0
ARC
  5
18C
330
37
100
AcDbEntity
  8
Visible (ANSI)
100
AcDbCircle
 10
2.418712174863216
 20
1.342790399165467
 30
0.0
 40
0.0035000000000017
100
AcDbArc
 50
180.0
 51
270.0000000000458
  0
LINE
  5
18D
330
37
100
AcDbEntity
  8
Visible (ANSI)
100
AcDbLine
 10
2.415212174863213
 20
1.34279039916547
 30
0.0
 11
2.415212174863213
 21
1.625790399165816
 31
0.0
  0
ARC
  5
18E
330
37
100
AcDbEntity
  8
Visible (ANSI)
100
AcDbCircle
 10
2.359462174863146
 20
1.625790399165813
 30
0.0
 40
0.0557500000000693
100
AcDbArc
 50
0.0
 51
180.0
  0
LINE
  5
18F
330
37
100
AcDbEntity
  8
Visible (ANSI)
100
AcDbLine
 10
2.303712174863079
 20
1.625790399165816
 30
0.0
 11
2.303712174863079
 21
1.575040399165754
 31
0.0
  0
ARC
  5
190
330
37
100
AcDbEntity
  8
Visible (ANSI)
100
AcDbCircle
 10
2.25446217486302
 20
1.575040399165752
 30
0.0
 40
0.0492500000000566
100
AcDbArc
 50
281.5657063836198
 51
0.0
  0
LINE
  5
191
330
37
100
AcDbEntity
  8
Visible (ANSI)
100
AcDbLine
 10
2.26433638486303
 20
1.526790399405323
 30
0.0
 11
2.26433638486303
 21
1.524790398926064
 31
0.0
  0
ARC
  5
192
330
37
100
AcDbEntity
  8
Visible (ANSI)
100
AcDbCircle
 10
2.25446217486302
 20
1.476540399165635
 30
0.0
 40
0.0492500000000582
100
AcDbArc
 50
0.0
 51
78.43429361638065
  0
LINE
  5
193
330
37
100
AcDbEntity
  8
Visible (ANSI)
100
AcDbLine
 10
2.415212174863213
 20
1.349290399165472
 30
0.0
 11
2.433712174863238
 21
1.349290399165472
 31
0.0
  0
LINE
  5
194
330
37
100
AcDbEntity
  8
Visible (ANSI)
100
AcDbLine
 10
2.433712174863238
 20
1.330790399165449
 30
0.0
 11
2.433712174863238
 21
1.352790399165481
 31
0.0
  0
ARC
  5
195
330
37
100
AcDbEntity
  8
Visible (ANSI)
100
AcDbCircle
 10
2.230336384862986
 20
1.698790399165849
 30
0.0
 40
0.0468750000000573
100
AcDbArc
 50
267.1474807601518
 51
184.33679421962
  0
INSERT
  5
1BC
330
37
100
AcDbEntity
  8
Dimension (ANSI)
100
AcDbBlockReference
  2
Origin Indicator Symbol2
 10
0.0
 20
0.0
 30
0.0
 41
0.25
 42
0.25
 43
0.25
  0
INSERT
  5
257
330
37
100
AcDbEntity
  8
Symbol (ANSI)
100
AcDbBlockReference
  2
Hole Table1
 10
0.0
 20
0.0
 30
0.0
 41
0.25
 42
0.25
 43
0.25
  0
INSERT
  5
269
330
37
100
AcDbEntity
  8
Symbol (ANSI)
100
AcDbBlockReference
  2
Leader Text1
 10
0.0
 20
0.0
 30
0.0
 41
0.25
 42
0.25
 43
0.25
  0
INSERT
  5
27B
330
37
100
AcDbEntity
  8
Symbol (ANSI)
100
AcDbBlockReference
  2
Leader Text2
 10
0.0
 20
0.0
 30
0.0
 41
0.25
 42
0.25
 43
0.25
  0
INSERT
  5
306
330
37
100
AcDbEntity
  8
Symbol (ANSI)
100
AcDbBlockReference
  2
Hole Table2
 10
0.0
 20
0.0
 30
0.0
 41
0.25
 42
0.25
 43
0.25
  0
INSERT
  5
318
330
37
100
AcDbEntity
  8
Symbol (ANSI)
100
AcDbBlockReference
  2
Leader Text3
 10
0.0
 20
0.0
 30
0.0
 41
0.25
 42
0.25
 43
0.25
  0
INSERT
  5
32A
330
37
100
AcDbEntity
  8
Symbol (ANSI)
100
AcDbBlockReference
  2
Leader Text4
 10
0.0
 20
0.0
 30
0.0
 41
0.25
 42
0.25
 43
0.25
  0
MTEXT
  5
32B
330
37
100
AcDbEntity
  8
Symbol (ANSI)
100
AcDbMText
 10
2.372064885462185
 20
0.2130524746970866
 30
0.0
 40
0.0300000003707691
 41
0.0
 71
     1
 72
     1
  1
{B3}
  7
Note Text (ANSI)
 73
     1
 44
1.0
1001
ACAD
1000
MTEXTBEGIN
1070
    73
1070
     1
1070
    44
1040
1.0
1070
    74
1070
     0
1000
MTEXTEND
  0
INSERT
  5
33D
330
37
100
AcDbEntity
  8
Symbol (ANSI)
100
AcDbBlockReference
  2
Leader Text5
 10
0.0
 20
0.0
 30
0.0
 41
0.25
 42
0.25
 43
0.25
  0
INSERT
  5
34F
330
37
100
AcDbEntity
  8
Symbol (ANSI)
100
AcDbBlockReference
  2
Leader Text6
 10
0.0
 20
0.0
 30
0.0
 41
0.25
 42
0.25
 43
0.25
  0
INSERT
  5
361
330
37
100
AcDbEntity
  8
Symbol (ANSI)
100
AcDbBlockReference
  2
Leader Text7
 10
0.0
 20
0.0
 30
0.0
 41
0.25
 42
0.25
 43
0.25
  0
INSERT
  5
366
330
37
100
AcDbEntity
  8
Symbol (ANSI)
100
AcDbBlockReference
  2
Leader Text8
 10
0.0
 20
0.0
 30
0.0
 41
0.25
 42
0.25
 43
0.25
  0
INSERT
  5
378
330
37
100
AcDbEntity
  8
Symbol (ANSI)
100
AcDbBlockReference
  2
Leader Text9
 10
0.0
 20
0.0
 30
0.0
 41
0.25
 42
0.25
 43
0.25
  0
INSERT
  5
38A
330
37
100
AcDbEntity
  8
Symbol (ANSI)
100
AcDbBlockReference
  2
Leader Text10
 10
0.0
 20
0.0
 30
0.0
 41
0.25
 42
0.25
 43
0.25
  0
INSERT
  5
39C
330
37
100
AcDbEntity
  8
Symbol (ANSI)
100
AcDbBlockReference
  2
Leader Text11
 10
0.0
 20
0.0
 30
0.0
 41
0.25
 42
0.25
 43
0.25
  0
INSERT
  5
3AE
330
37
100
AcDbEntity
  8
Symbol (ANSI)
100
AcDbBlockReference
  2
Leader Text12
 10
0.0
 20
0.0
 30
0.0
 41
0.25
 42
0.25
 43
0.25
  0
MTEXT
  5
3AF
330
37
100
AcDbEntity
  8
Symbol (ANSI)
100
AcDbMText
 10
2.269401630363276
 20
1.963566346369895
 30
0.0
 40
0.0300000003707691
 41
0.311572110559058
 71
     1
 72
     1
  1
{2 OF 4 (BLOCK3)}
  7
Note Text (ANSI)
 73
     1
 44
1.0
1001
ACAD
1000
MTEXTBEGIN
1070
    73
1070
     1
1070
    44
1040
1.0
1070
    74
1070
     0
1000
MTEXTEND
  0
ENDSEC
  0
SECTION
  2
OBJECTS
  0
DICTIONARY
  5
C
330
0
100
AcDbDictionary
281
     1
  3
ACAD_COLOR
350
30
  3
ACAD_GROUP
350
D
  3
ACAD_LAYOUT
350
2F
  3
ACAD_MATERIAL
350
10
  3
ACAD_MLINESTYLE
350
2C
  3
ACAD_PLOTSETTINGS
350
2E
  3
ACAD_PLOTSTYLENAME
350
E
  3
ACAD_TABLESTYLE
350
31
  3
ACAD_VISUALSTYLE
350
14
  3
AcDbVariableDictionary
350
3B0
  3
DWGPROPS
350
3B6
  0
DICTIONARY
  5
30
102
{ACAD_REACTORS
330
C
102
}
330
C
100
AcDbDictionary
281
     1
  0
DICTIONARY
  5
D
102
{ACAD_REACTORS
330
C
102
}
330
C
100
AcDbDictionary
281
     1
  0
DICTIONARY
  5
2F
102
{ACAD_REACTORS
330
C
102
}
330
C
100
AcDbDictionary
281
     1
  3
Layout1
350
36
  3
Layout2
350
3E
  3
Model
350
3A
  0
DICTIONARY
  5
10
102
{ACAD_REACTORS
330
C
102
}
330
C
100
AcDbDictionary
281
     1
  3
ByBlock
350
12
  3
ByLayer
350
11
  3
Global
350
13
  0
DICTIONARY
  5
2C
102
{ACAD_REACTORS
330
C
102
}
330
C
100
AcDbDictionary
281
     1
  3
Standard
350
2D
  0
DICTIONARY
  5
2E
102
{ACAD_REACTORS
330
C
102
}
330
C
100
AcDbDictionary
281
     1
  0
ACDBDICTIONARYWDFLT
  5
E
102
{ACAD_REACTORS
330
C
102
}
330
C
100
AcDbDictionary
281
     1
  3
Normal
350
F
100
AcDbDictionaryWithDefault
340
F
  0
DICTIONARY
  5
31
102
{ACAD_REACTORS
330
C
102
}
330
C
100
AcDbDictionary
281
     1
  3
Standard
350
32
  0
DICTIONARY
  5
14
102
{ACAD_REACTORS
330
C
102
}
330
C
100
AcDbDictionary
281
     1
  3
2dWireframe
350
1A
  3
3D Hidden
350
1C
  3
3dWireframe
350
1B
  3
Basic
350
19
  3
Brighten
350
20
  3
ColorChange
350
24
  3
Conceptual
350
1D
  3
Dim
350
1F
  3
Facepattern
350
23
  3
Flat
350
15
  3
FlatWithEdges
350
16
  3
Gouraud
350
17
  3
GouraudWithEdges
350
18
  3
Linepattern
350
22
  3
Realistic
350
1E
  3
Thicken
350
21
  0
DICTIONARY
  5
3B0
102
{ACAD_REACTORS
330
C
102
}
330
C
100
AcDbDictionary
281
     1
  3
CTABLESTYLE
350
3B1
  3
DIMASSOC
350
3B5
  3
HIDETEXT
350
3B4
  3
INDEXCTL
350
3B3
  3
SORTENTS
350
3B2
  0
XRECORD
  5
3B6
102
{ACAD_REACTORS
330
C
102
}
330
C
100
AcDbXrecord
280
     1
  1
DWGPROPS COOKIE
  2

  3

  4
Da Chow
  6

  7

  8

  9

300
Manager=
301
Company=RADIO ASTRONOMY LABORATORY
302
Category=
303
Part Number=Block3-V61
304
Description=
305
Project=
306
Designer=Da Chow
307
Engineer=
308
Authority=
309
Cost Center=
 40
0.00002875
 41
2454846.689035914
 42
2454846.689035914
  1

 90
       17
300
Vendor=
300
User Status=
300
Design Status=WorkInProgress
300
Checked by=
300
Date Checked=01/14/2009
300
Engr Approved by=
300
Mfg Approved by=
  0
LAYOUT
  5
36
102
{ACAD_XDICTIONARY
360
3BF
102
}
102
{ACAD_REACTORS
330
2F
102
}
330
2F
100
AcDbPlotSettings
  1

  2

  4

  6

 40
0.0
 41
0.0
 42
0.0
 43
0.0
 44
0.0
 45
0.0
 46
0.0
 47
0.0
 48
0.0
 49
0.0
140
0.0
141
0.0
142
1.0
143
1.0
 70
   688
 72
     0
 73
     0
 74
     5
  7

 75
    16
147
1.0
148
0.0
149
0.0
100
AcDbLayout
  1
Layout1
 70
     1
 71
     1
 10
0.0
 20
0.0
 11
12.0
 21
9.0
 12
0.0
 22
0.0
 32
0.0
 14
0.0
 24
0.0
 34
0.0
 15
0.0
 25
0.0
 35
0.0
146
0.0
 13
0.0
 23
0.0
 33
0.0
 16
1.0
 26
0.0
 36
0.0
 17
0.0
 27
1.0
 37
0.0
 76
     0
330
33
  0
LAYOUT
  5
3E
102
{ACAD_XDICTIONARY
360
3C3
102
}
102
{ACAD_REACTORS
330
2F
102
}
330
2F
100
AcDbPlotSettings
  1

  2

  4

  6

 40
0.0
 41
0.0
 42
0.0
 43
0.0
 44
0.0
 45
0.0
 46
0.0
 47
0.0
 48
0.0
 49
0.0
140
0.0
141
0.0
142
1.0
143
1.0
 70
   688
 72
     0
 73
     0
 74
     5
  7

 75
    16
147
1.0
148
0.0
149
0.0
100
AcDbLayout
  1
Layout2
 70
     1
 71
     2
 10
0.0
 20
0.0
 11
12.0
 21
9.0
 12
0.0
 22
0.0
 32
0.0
 14
0.0
 24
0.0
 34
0.0
 15
0.0
 25
0.0
 35
0.0
146
0.0
 13
0.0
 23
0.0
 33
0.0
 16
1.0
 26
0.0
 36
0.0
 17
0.0
 27
1.0
 37
0.0
 76
     0
330
3B
  0
LAYOUT
  5
3A
102
{ACAD_XDICTIONARY
360
3C1
102
}
102
{ACAD_REACTORS
330
2F
102
}
330
2F
100
AcDbPlotSettings
  1

  2

  4

  6

 40
0.0
 41
0.0
 42
0.0
 43
0.0
 44
0.0
 45
0.0
 46
0.0
 47
0.0
 48
0.0
 49
0.0
140
0.0
141
0.0
142
1.0
143
1.0
 70
  1712
 72
     0
 73
     0
 74
     0
  7

 75
     0
147
1.0
148
0.0
149
0.0
100
AcDbLayout
  1
Model
 70
     1
 71
     0
 10
0.0
 20
0.0
 11
12.0
 21
9.0
 12
0.0
 22
0.0
 32
0.0
 14
0.0
 24
0.0
 34
0.0
 15
0.0
 25
0.0
 35
0.0
146
0.0
 13
0.0
 23
0.0
 33
0.0
 16
1.0
 26
0.0
 36
0.0
 17
0.0
 27
1.0
 37
0.0
 76
     0
330
37
  0
MATERIAL
  5
12
102
{ACAD_XDICTIONARY
360
3B9
102
}
102
{ACAD_REACTORS
330
10
102
}
330
10
100
AcDbMaterial
  1
ByBlock
  0
MATERIAL
  5
11
102
{ACAD_XDICTIONARY
360
3B7
102
}
102
{ACAD_REACTORS
330
10
102
}
330
10
100
AcDbMaterial
  1
ByLayer
  0
MATERIAL
  5
13
102
{ACAD_XDICTIONARY
360
3BB
102
}
102
{ACAD_REACTORS
330
10
102
}
330
10
100
AcDbMaterial
  1
Global
  0
MLINESTYLE
  5
2D
102
{ACAD_REACTORS
330
2C
102
}
330
2C
100
AcDbMlineStyle
  2
STANDARD
 70
     0
  3

 62
   256
 51
90.0
 52
90.0
 71
     2
 49
0.5
 62
   256
  6
BYLAYER
 49
-0.5
 62
   256
  6
BYLAYER
  0
ACDBPLACEHOLDER
  5
F
102
{ACAD_REACTORS
330
E
102
}
330
E
  0
TABLESTYLE
  5
32
102
{ACAD_XDICTIONARY
360
3BD
102
}
102
{ACAD_REACTORS
330
31
102
}
330
31
100
AcDbTableStyle
  3
Standard
 70
     0
 71
     0
 40
0.06
 41
0.06
280
     0
281
     0
  7
Standard
140
0.18
170
     2
 62
     0
 63
     7
283
     0
274
    -2
284
     1
 64
     0
275
    -2
285
     1
 65
     0
276
    -2
286
     1
 66
     0
277
    -2
287
     1
 67
     0
278
    -2
288
     1
 68
     0
279
    -2
289
     1
 69
     0
  7
Standard
140
0.25
170
     5
 62
     0
 63
     7
283
     0
274
    -2
284
     1
 64
     0
275
    -2
285
     1
 65
     0
276
    -2
286
     1
 66
     0
277
    -2
287
     1
 67
     0
278
    -2
288
     1
 68
     0
279
    -2
289
     1
 69
     0
  7
Standard
140
0.18
170
     5
 62
     0
 63
     7
283
     0
274
    -2
284
     1
 64
     0
275
    -2
285
     1
 65
     0
276
    -2
286
     1
 66
     0
277
    -2
287
     1
 67
     0
278
    -2
288
     1
 68
     0
279
    -2
289
     1
 69
     0
  0
VISUALSTYLE
  5
1A
102
{ACAD_REACTORS
330
14
102
}
330
14
100
AcDbVisualStyle
  2
2dWireframe
 70
     4
 71
     0
 72
     2
 73
     0
 90
        0
 40
-0.6
 41
-30.0
 62
     5
 63
     7
 74
     1
 91
        4
 64
     7
 65
   257
 75
     1
175
     1
 42
1.0
 92
        0
 66
   257
 43
1.0
 76
     1
 77
     6
 78
     2
 67
     7
 79
     5
170
     0
171
     0
290
     0
174
     0
 93
        1
 44
0.0
173
     0
291
     0
 45
0.0
1001
ACAD
1000
AcDbSavedByObjectVersion
1070
     0
  0
VISUALSTYLE
  5
1C
102
{ACAD_REACTORS
330
14
102
}
330
14
100
AcDbVisualStyle
  2
3D Hidden
 70
     6
 71
     1
 72
     2
 73
     2
 90
        0
 40
-0.6
 41
-30.0
 62
     5
 63
     7
 74
     2
 91
        2
 64
     7
 65
   257
 75
     2
175
     1
 42
40.0
 92
        0
 66
   257
 43
1.0
 76
     1
 77
     6
 78
     2
 67
     7
 79
     3
170
     0
171
     0
290
     0
174
     0
 93
        1
 44
0.0
173
     0
291
     0
 45
0.0
1001
ACAD
1000
AcDbSavedByObjectVersion
1070
     0
  0
VISUALSTYLE
  5
1B
102
{ACAD_REACTORS
330
14
102
}
330
14
100
AcDbVisualStyle
  2
3dWireframe
 70
     5
 71
     0
 72
     2
 73
     0
 90
        0
 40
-0.6
 41
-30.0
 62
     5
 63
     7
 74
     1
 91
        4
 64
     7
 65
   257
 75
     1
175
     1
 42
1.0
 92
        0
 66
   257
 43
1.0
 76
     1
 77
     6
 78
     2
 67
     7
 79
     5
170
     0
171
     0
290
     0
174
     0
 93
        1
 44
0.0
173
     0
291
     0
 45
0.0
1001
ACAD
1000
AcDbSavedByObjectVersion
1070
     0
  0
VISUALSTYLE
  5
19
102
{ACAD_REACTORS
330
14
102
}
330
14
100
AcDbVisualStyle
  2
Basic
 70
     7
 71
     1
 72
     0
 73
     1
 90
        0
 40
-0.6
 41
-30.0
 62
     5
 63
     7
 74
     0
 91
        4
 64
     7
 65
   257
 75
     1
175
     1
 42
1.0
 92
        8
 66
     7
 43
1.0
 76
     1
 77
     6
 78
     2
 67
     7
 79
     5
170
     0
171
     0
290
     0
174
     0
 93
        1
 44
0.0
173
     0
291
     1
 45
0.0
1001
ACAD
1000
AcDbSavedByObjectVersion
1070
     0
  0
VISUALSTYLE
  5
20
102
{ACAD_REACTORS
330
14
102
}
330
14
100
AcDbVisualStyle
  2
Brighten
 70
    12
 71
     2
 72
     2
 73
     0
 90
        0
 40
-0.6
 41
-30.0
 62
     5
 63
     7
 74
     1
 91
        4
 64
     7
 65
   257
 75
     1
175
     1
 42
1.0
 92
        8
 66
     7
 43
1.0
 76
     1
 77
     6
 78
     2
 67
     7
 79
     5
170
     0
171
     0
290
     0
174
     0
 93
        1
 44
50.0
173
     0
291
     1
 45
0.0
1001
ACAD
1000
AcDbSavedByObjectVersion
1070
     0
  0
VISUALSTYLE
  5
24
102
{ACAD_REACTORS
330
14
102
}
330
14
100
AcDbVisualStyle
  2
ColorChange
 70
    16
 71
     2
 72
     2
 73
     3
 90
        0
 40
-0.6
 41
-30.0
 62
     5
 63
     8
 74
     1
 91
        4
 64
     7
 65
   257
 75
     1
175
     1
 42
1.0
 92
        8
 66
     8
 43
1.0
 76
     1
 77
     6
 78
     2
 67
     7
 79
     5
170
     0
171
     0
290
     0
174
     0
 93
        1
 44
0.0
173
     0
291
     1
 45
0.0
1001
ACAD
1000
AcDbSavedByObjectVersion
1070
     0
  0
VISUALSTYLE
  5
1D
102
{ACAD_REACTORS
330
14
102
}
330
14
100
AcDbVisualStyle
  2
Conceptual
 70
     9
 71
     3
 72
     2
 73
     0
 90
        0
 40
-0.6
 41
-30.0
 62
     5
 63
     7
 74
     2
 91
        2
 64
     7
 65
   257
 75
     1
175
     1
 42
40.0
 92
        8
 66
     7
 43
1.0
 76
     1
 77
     6
 78
     2
 67
     7
 79
     3
170
     0
171
     0
290
     0
174
     0
 93
        1
 44
0.0
173
     0
291
     0
 45
0.0
1001
ACAD
1000
AcDbSavedByObjectVersion
1070
     0
  0
VISUALSTYLE
  5
1F
102
{ACAD_REACTORS
330
14
102
}
330
14
100
AcDbVisualStyle
  2
Dim
 70
    11
 71
     2
 72
     2
 73
     0
 90
        0
 40
-0.6
 41
-30.0
 62
     5
 63
     7
 74
     1
 91
        4
 64
     7
 65
   257
 75
     1
175
     1
 42
1.0
 92
        8
 66
     7
 43
1.0
 76
     1
 77
     6
 78
     2
 67
     7
 79
     5
170
     0
171
     0
290
     0
174
     0
 93
        1
 44
-50.0
173
     0
291
     1
 45
0.0
1001
ACAD
1000
AcDbSavedByObjectVersion
1070
     0
  0
VISUALSTYLE
  5
23
102
{ACAD_REACTORS
330
14
102
}
330
14
100
AcDbVisualStyle
  2
Facepattern
 70
    15
 71
     2
 72
     2
 73
     0
 90
        0
 40
-0.6
 41
-30.0
 62
     5
 63
     7
 74
     1
 91
        4
 64
     7
 65
   257
 75
     1
175
     1
 42
1.0
 92
        8
 66
     7
 43
1.0
 76
     1
 77
     6
 78
     2
 67
     7
 79
     5
170
     0
171
     0
290
     0
174
     0
 93
        1
 44
0.0
173
     0
291
     1
 45
0.0
1001
ACAD
1000
AcDbSavedByObjectVersion
1070
     0
  0
VISUALSTYLE
  5
15
102
{ACAD_REACTORS
330
14
102
}
330
14
100
AcDbVisualStyle
  2
Flat
 70
     0
 71
     2
 72
     1
 73
     1
 90
        2
 40
-0.6
 41
30.0
 62
     5
 63
     7
 74
     0
 91
        4
 64
     7
 65
   257
 75
     1
175
     1
 42
1.0
 92
        8
 66
     7
 43
1.0
 76
     1
 77
     6
 78
     2
 67
     7
 79
     5
170
     0
171
     0
290
     0
174
     0
 93
       13
 44
0.0
173
     0
291
     1
 45
0.0
1001
ACAD
1000
AcDbSavedByObjectVersion
1070
     0
  0
VISUALSTYLE
  5
16
102
{ACAD_REACTORS
330
14
102
}
330
14
100
AcDbVisualStyle
  2
FlatWithEdges
 70
     1
 71
     2
 72
     1
 73
     1
 90
        2
 40
-0.6
 41
30.0
 62
     5
 63
     7
 74
     1
 91
        4
 64
     7
 65
   257
 75
     1
175
     1
 42
1.0
 92
        0
 66
   257
 43
1.0
 76
     1
 77
     6
 78
     2
 67
     7
 79
     5
170
     0
171
     0
290
     0
174
     0
 93
       13
 44
0.0
173
     0
291
     1
 45
0.0
1001
ACAD
1000
AcDbSavedByObjectVersion
1070
     0
  0
VISUALSTYLE
  5
17
102
{ACAD_REACTORS
330
14
102
}
330
14
100
AcDbVisualStyle
  2
Gouraud
 70
     2
 71
     2
 72
     2
 73
     1
 90
        2
 40
-0.6
 41
30.0
 62
     5
 63
     7
 74
     0
 91
        4
 64
     7
 65
   257
 75
     1
175
     1
 42
1.0
 92
        0
 66
     7
 43
1.0
 76
     1
 77
     6
 78
     2
 67
     7
 79
     5
170
     0
171
     0
290
     0
174
     0
 93
       13
 44
0.0
173
     0
291
     1
 45
0.0
1001
ACAD
1000
AcDbSavedByObjectVersion
1070
     0
  0
VISUALSTYLE
  5
18
102
{ACAD_REACTORS
330
14
102
}
330
14
100
AcDbVisualStyle
  2
GouraudWithEdges
 70
     3
 71
     2
 72
     2
 73
     1
 90
        2
 40
-0.6
 41
30.0
 62
     5
 63
     7
 74
     1
 91
        4
 64
     7
 65
   257
 75
     1
175
     1
 42
1.0
 92
        0
 66
   257
 43
1.0
 76
     1
 77
     6
 78
     2
 67
     7
 79
     5
170
     0
171
     0
290
     0
174
     0
 93
       13
 44
0.0
173
     0
291
     1
 45
0.0
1001
ACAD
1000
AcDbSavedByObjectVersion
1070
     0
  0
VISUALSTYLE
  5
22
102
{ACAD_REACTORS
330
14
102
}
330
14
100
AcDbVisualStyle
  2
Linepattern
 70
    14
 71
     2
 72
     2
 73
     0
 90
        0
 40
-0.6
 41
-30.0
 62
     5
 63
     7
 74
     1
 91
        4
 64
     7
 65
   257
 75
     7
175
     7
 42
1.0
 92
        8
 66
     7
 43
1.0
 76
     1
 77
     6
 78
     2
 67
     7
 79
     5
170
     0
171
     0
290
     0
174
     0
 93
        1
 44
0.0
173
     0
291
     1
 45
0.0
1001
ACAD
1000
AcDbSavedByObjectVersion
1070
     0
  0
VISUALSTYLE
  5
1E
102
{ACAD_REACTORS
330
14
102
}
330
14
100
AcDbVisualStyle
  2
Realistic
 70
     8
 71
     2
 72
     2
 73
     0
 90
        0
 40
-0.6
 41
-30.0
 62
     5
 63
     7
 74
     1
 91
        0
 64
     7
 65
   257
 75
     1
175
     1
 42
1.0
 92
        8
 66
     8
 43
1.0
 76
     1
 77
     6
 78
     2
 67
     7
 79
     5
170
     0
171
     0
290
     0
174
     0
 93
       13
 44
0.0
173
     0
291
     0
 45
0.0
1001
ACAD
1000
AcDbSavedByObjectVersion
1070
     0
  0
VISUALSTYLE
  5
21
102
{ACAD_REACTORS
330
14
102
}
330
14
100
AcDbVisualStyle
  2
Thicken
 70
    13
 71
     2
 72
     2
 73
     0
 90
        0
 40
-0.6
 41
-30.0
 62
     5
 63
     7
 74
     1
 91
        4
 64
     7
 65
   257
 75
     1
175
     1
 42
1.0
 92
       12
 66
     7
 43
1.0
 76
     1
 77
     6
 78
     2
 67
     7
 79
     5
170
     0
171
     0
290
     0
174
     0
 93
        1
 44
0.0
173
     0
291
     1
 45
0.0
1001
ACAD
1000
AcDbSavedByObjectVersion
1070
     0
  0
DICTIONARYVAR
  5
3B1
102
{ACAD_REACTORS
330
3B0
102
}
330
3B0
100
DictionaryVariables
280
     0
  1
STANDARD
  0
DICTIONARYVAR
  5
3B5
102
{ACAD_REACTORS
330
3B0
102
}
330
3B0
100
DictionaryVariables
280
     0
  1
1
  0
DICTIONARYVAR
  5
3B4
102
{ACAD_REACTORS
330
3B0
102
}
330
3B0
100
DictionaryVariables
280
     0
  1
1
  0
DICTIONARYVAR
  5
3B3
102
{ACAD_REACTORS
330
3B0
102
}
330
3B0
100
DictionaryVariables
280
     0
  1
0
  0
DICTIONARYVAR
  5
3B2
102
{ACAD_REACTORS
330
3B0
102
}
330
3B0
100
DictionaryVariables
280
     0
  1
127
  0
DICTIONARY
  5
3BF
330
36
100
AcDbDictionary
280
     1
281
     1
  3
ACAD_XREC_ROUNDTRIP
360
3C0
  0
DICTIONARY
  5
3C3
330
3E
100
AcDbDictionary
280
     1
281
     1
  3
ACAD_XREC_ROUNDTRIP
360
3C4
  0
DICTIONARY
  5
3C1
330
3A
100
AcDbDictionary
280
     1
281
     1
  3
ACAD_XREC_ROUNDTRIP
360
3C2
  0
DICTIONARY
  5
3B9
330
12
100
AcDbDictionary
280
     1
281
     1
  3
ACAD_XREC_ROUNDTRIP
360
3BA
  0
DICTIONARY
  5
3B7
330
11
100
AcDbDictionary
280
     1
281
     1
  3
ACAD_XREC_ROUNDTRIP
360
3B8
  0
DICTIONARY
  5
3BB
330
13
100
AcDbDictionary
280
     1
281
     1
  3
ACAD_XREC_ROUNDTRIP
360
3BC
  0
DICTIONARY
  5
3BD
330
32
100
AcDbDictionary
280
     1
281
     1
  3
ACAD_XREC_ROUNDTRIP
360
3BE
  0
XRECORD
  5
3C0
102
{ACAD_REACTORS
330
3BF
102
}
330
3BF
100
AcDbXrecord
280
     1
102
SHADEPLOT
 70
     0
102
SHADEPLOTRESLEVEL
 70
     2
102
SHADEPLOTCUSTOMDPI
 70
   300
  0
XRECORD
  5
3C4
102
{ACAD_REACTORS
330
3C3
102
}
330
3C3
100
AcDbXrecord
280
     1
102
SHADEPLOT
 70
     0
102
SHADEPLOTRESLEVEL
 70
     2
102
SHADEPLOTCUSTOMDPI
 70
   300
  0
XRECORD
  5
3C2
102
{ACAD_REACTORS
330
3C1
102
}
330
3C1
100
AcDbXrecord
280
     1
102
SHADEPLOT
 70
     0
102
SHADEPLOTRESLEVEL
 70
     2
102
SHADEPLOTCUSTOMDPI
 70
   300
  0
XRECORD
  5
3BA
102
{ACAD_REACTORS
330
3B9
102
}
330
3B9
100
AcDbXrecord
280
     1
102
MATERIAL
148
0.0
149
0.0
149
0.0
 93
        0
 94
       63
282
     0
 72
     1
 77
     1
171
     1
175
     1
179
     1
273
     0
  0
XRECORD
  5
3B8
102
{ACAD_REACTORS
330
3B7
102
}
330
3B7
100
AcDbXrecord
280
     1
102
MATERIAL
148
0.0
149
0.0
149
0.0
 93
        0
 94
       63
282
     0
 72
     1
 77
     1
171
     1
175
     1
179
     1
273
     0
  0
XRECORD
  5
3BC
102
{ACAD_REACTORS
330
3BB
102
}
330
3BB
100
AcDbXrecord
280
     1
102
MATERIAL
148
0.0
149
0.0
149
0.0
 93
        0
 94
       63
282
     0
 72
     1
 77
     1
171
     1
175
     1
179
     1
273
     0
  0
XRECORD
  5
3BE
102
{ACAD_REACTORS
330
3BD
102
}
330
3BD
100
AcDbXrecord
280
     1
102
ACAD_ROUNDTRIP_PRE2007_TABLESTYLE
 90
      512
 91
        0
  1

 92
      512
 93
        0
  2

 94
      512
 95
        0
  3

  0
ENDSEC
  0
EOF
